Rod Stewart - Maggie May Chords & Tabs

 

Maggie May Chords & Tabs

Rod Stewart Chords & Tabs

Version: 2 Type: Tab 0 ratings
1 star 2 stars 3 stars 4 stars 5 stars
comments

Maggie May Tab

Rod Stewart - Maggie May
[ Tab from: http://www.guitartabs.cc/tabs/r/rod_stewart/maggie_may_tab_ver_2.html ]
------5--------------------------------------5-------------------------------------|
----5-----8--5----------------8--5------5------8----5----------------------- ------|
--5-------5------7--5-----7----------5---------5-------5--7---5--7---------- ------|
------------- 7--5---------5------7------------------7--7--7---5--7----------------|
 -------------------------------------------------------------5-------------- -----|
 -----------------------------------------------------------------8--5------- -----|

----------7----5--------------------------------------------0--------------- ------|
------5---5--------8--7--5----------5---0------------------0---------------- ------|
----5----------5---5------------7---5--------6-------8-----0---------------- ------|
--7------------------------------5-------5----7-------9--------------------- ------|
-----------------------------------------7-----7-------9-------------------- ------|
---------------------------------------------------------------------------- ------|
Comments