Rod Stewart - I Was Only Joking Chords & Tabs

 

I Was Only Joking Chords & Tabs

Rod Stewart Chords & Tabs

Version: 1 Type: Tab 0 ratings
1 star 2 stars 3 stars 4 stars 5 stars
comments

I Was Only Joking Tab

   
#----------------------------------PLEASE NOTE---------------------------------#
#This file is the author's own work and represents their interpretation of the #
#song. You may only use this file for private study, scholarship, or research. #
#------------------------------------------------------------------------------#


I Was Only Joking
By Rod Stewart

submitted by: rogermandez@yahoo.com


acoustic guitar
                                                                           
-------------------|-------------------------|----------------------------|
-------------------|--------------2--5--7----|--7--5--2h0--------5-5-5-5--|
-------------------|-------------------------|------------2---------------|
-------------------|------2--4---------------|----------------------------|
----------------0--|--0-4--------------------|----------------------------|
-------------------|-------------------------|----------------------------|
                                                        
--------------------------------|----------------------|
--7----8----7----5----8----7----|--5--3----------3--5--|
--------------------------------|----------------------|
--------------------------------|----------------------|
--------------------------------|----------------------|
--------------------------------|----------------------|
                                                                                
--------------------------|-----------------------|-----------------0----------|
--6--------3-6-5-3-6-5-3--|--3--3--2----0---------|--------2-------------3--2--|
--------------------------|----------------2------|--1-2-4---4-2-1-------------|
--------------------------|-----------------------|----------------------------|
--------------------------|-----------------------|----------------------------|
--------------------------|-----------------------|----------------------------|
                                                   
------------------------|-----------5----9--10--12--|
--0---------------------|--------5------------------|
-----2------------------|--2--6---------------------|
------------------2--4--|---------------------------|
--------------0-4-------|---------------------------|
------------------------|---------------------------|
                                                                           
--12-12-12-12-12-12-12-12-12-12-12-12-12-12-12-12-12-12-12-12-12-12-12-12-|
--------------------------------------------------------------------------|
--------------------------------------------------------------------------|
--------------------------------------------------------------------------|
--------------------------------------------------------------------------|
--------------------------------------------------------------------------|
                                                                         
--12----12----12----10----9----------|--10--9--7--5--5--5---------------|
-------------------------------12----|---------------------5------------|
-------------------------------------|------------------------7--7------|
-------------------------------------|----------------------------------|
-------------------------------------|----------------------------------|
-------------------------------------|----------------------------------|
                                                           
------------5----7----5----4----|--5----12--12------14----|
-------6------------------------|-------------------------|
--7-----------------------------|-------------------------|
--------------------------------|-------------------------|
--------------------------------|-------------------------|
--------------------------------|-------------------------|
                                                                           
--16-16-16-16-16-16-16-16-16-16-16-16-16-16-16-16-16-16-16-16-16-16-16-16-|
--------------------------------------------------------------------------|
--------------------------------------------------------------------------|
--------------------------------------------------------------------------|
--------------------------------------------------------------------------|
--------------------------------------------------------------------------|
                                                                              
--17-17-17-17-17-17-17-17-17-17-17-17-17-17-17-17-17-17-17-17-17-17-17-17-|---|
--------------------------------------------------------------------------|---|
--------------------------------------------------------------------------|---|
--------------------------------------------------------------------------|---|
--------------------------------------------------------------------------|---|
--------------------------------------------------------------------------|---|
[ Tab from: http://www.guitartabs.cc/tabs/r/rod_stewart/i_was_only_joking_tab.html ]
electric guitar
                                              A                      
------|------|------|------|------------------|--17--------19----17----|
------|------|------|------|------------------|------------------------|
------|------|------|------|------------------|------------------------|
------|------|------|------|------------------|------------------------|
------|------|------|------|------------------|------------------------|
------|------|------|------|------------------|------------------------|


  D                    E                              A                    
--------------------|------------------14--12--10--|--9------------9--10--|
--17b---------------|--17------15--17--------------|----------------------|
--------------------|------------------------------|----------------------|
--------------------|------------------------------|----------------------|
--------------------|------------------------------|----------------------|
--------------------|------------------------------|----------------------|

  D                            A                           
--10b-----10-9-10b-----10-9-|--10--9----------------------|
----------------------------|-----------12--10----10--12--|
----------------------------|-----------------------------|
----------------------------|-----------------------------|
----------------------------|-----------------------------|
----------------------------|-----------------------------|

  E                          A                        
--------------------------|--------------------------|
--12b-----12--12------10--|--9--10--12--10--9--------|
--------------------------|--------------------------|
--------------------------|--------------------------|
--------------------------|--------------------------|
--------------------------|--------------------------|

  A                            D                      E                       
----------------------------|----------------------|-------------------------|
--10-----------10-----------|----------------------|-------------------------|
------9------------9--------|--9------7--7------6--|--6--9--9----7--6-----4--|
---------11-----------11----|----------------------|-------------------7-----|
----------------------------|----------------------|-------------------------|
----------------------------|----------------------|-------------------------|


  A                   D                                           
-------------------|------------------------------------------9--|
-------------------|-------------------------------9--10--12-----|
--4b---------------|------------------------9--11----------------|
-------------------|-------------9--11--12-----------------------|
-------------------|--9--11--12----------------------------------|
-------------------|---------------------------------------------|


  A                              D                            
--10b---10--9-----------------|-----------------------9------|
---------------10-------------|---------------10--12-----12--|
-----------------------9h11h9-|--9--11--11-------------------|
------------------------------|------------------------------|
------------------------------|------------------------------|
------------------------------|------------------------------|

  A                    A                       A                      
--------------------|-----------------------|------------------------|
--10----------------|-----------------------|-----5--7--5------------|
--------------------|----------2--4----2----|--6-----------6----2----|
--------------------|-------4---------------|------------------------|
--------------------|----5------------------|------------------------|
--------------------|-----------------------|------------------------|

  A                       A                                  
-----------------------|----------------------------12b-----|
-----------------------|------------12--14--12--------------|
----------2--4----2----|----11--14--------------14----------|
-------4---------------|------------------------------------|
----5------------------|------------------------------------|
-----------------------|------------------------------------|

  D                            A                            
----14--17--17b---17----14--|--12----------12--------------|
----------------------------|------15--14------15--14------|
----------------------------|------------------------------|
----------------------------|------------------------------|
----------------------------|------------------------------|
----------------------------|------------------------------|

  D                        A                            A                      
------------------------|----------------------------|------------------------|
--14-14-14b-------------|--10--12--14----12----10----|------------------------|
------------------------|----------------------------|--11----9--------9------|
------------------------|----------------------------|-------------11---------|
------------------------|----------------------------|------------------------|
------------------------|----------------------------|------------------------|
Comments