Rod Stewart - Hot Legs Chords & Tabs

 

Hot Legs Chords & Tabs

Rod Stewart Chords & Tabs

Version: 1 Type: Bass Tab 0 ratings
1 star 2 stars 3 stars 4 stars 5 stars
comments

Hot Legs Bass Tab

   
-------------------------------------------------------------------------------
Hot Legs By  Rod Stewart
-------------------------------------------------------------------------------

Tabbed By : Todd Davis
e-mail: tdavis529@bellsouth.net

Tuning: G, D, C

Intro
G|-----------------------------------------------------------------------------|
D|-----------------------------------------------------------------------------|
A|-----555555555555-333333333333-------------------------23--------------------|
E|-------------------------------------------333333333333----34----------------|

G|-----------------------------------------------------------------------------|
D|-----------------------------------------------------------------------------|
A|333333333333333333 ------------------------555555555555---------------------|
E|------------------------------33333333333333333------------------------------|

G|-----------------------------------------------------------------------------|
D|-----------------------------------------------------------------------------|
A|-55555555555555555 -33333333333333333333-------------------------------------|
E|-------------------------------------------------------------33333333--------|

Singing comes in:
G|-----------------------------------------------------------------------------|
D|-------------------------------------------------5------------------ --------|
A|----------------------------23-33333333-3-7-7--------------------------------|
E|-0123-3333333333-35------------------------33333333333-----------------------|
[ Tab from: http://www.guitartabs.cc/tabs/r/rod_stewart/hot_legs_btab.html ]
G|-----------------------------------------------------------------------------|
D|-----------------------------------------------------------------------------|
A|-55555555----3333333333------------------------------------------------------|
E|---------------------------------3333333333333 ------------------------------|

G|-----------------------------------------------------------------------------|
D|-----------------------------------------------------------------------------|
A|-----------------------------------------------------------------------------|
E|333333333333333333333333333333333333 ----STOP--------------------------------|

That is the whole song just repeat over and add some half steps here and there
then you come to:

Bass solo


G|-3 H 4-----------------------------------------------------------------------|
D|---------5--023----------2345------------------------------------------------|
A|------------------235--------------------------------------------------------|
E|-----------------------------------------------------------------------------|

G|3 h 4-----------------------------------------------------------------------|
D|---------5--023----4--5-7----------------------------------------------------|
A|--------------------2--3-5---------------------------------------------------|
E|-----------------------------------------------------------------------------|

G|---------------------------------------------------------------------------|
D|---------------------------------------------------------------------------|
A|---------------------------------------------------------------------------|
E|---------------------------------------------------------------------------|


| /  slide up
| \  slide down
| h  hammer-on
| p  pull-off
| ~  vibrato
| +  harmonic
| x  Mute note
==========================================================
Comments