Rocky Votolato - Suicide Medicine Chords & Tabs

 

Suicide Medicine Chords & Tabs

Rocky Votolato Chords & Tabs

Version: 1 Type: Tab 0 ratings
1 star 2 stars 3 stars 4 stars 5 stars
comments

Suicide Medicine Tab

   
www.rockyvotolato.com
Artist: Rocky Votolato
Song: Suicide Medicine
Album: Suicide Medicine

Tabbed by: Josh Becker (j0shb3ck3r@hotmail.com)

Note: The lyrics I'm showing are just guides on when to play the chord...
You should be able to figure it out by ear...


Intro:         Verse:
eb|----------- |---------------------------------------------------|
Bb|----------- |---------------------------------------------------|
Gb|-77777777-- |----7777--4444-------------------------------------|
Db|-77777777-- |----7777--4444--2222--5555-------------------------|
Ab|-55555555xx |----5555--2222--2222--5555-------------------------|  
Eb|----------- |----------------0000--3333-------------------------|
                          A brain...
[ Tab from: http://www.guitartabs.cc/tabs/r/rocky_votolato/suicide_medicine_tab.html ]
Chorus 1:
eb|-----------------------------------------2-2-------0-0----------|
Bb|-----------------------------------------3---3-----2---2--------|
Gb|--------4*4*4*4*-------------------------2-----2---2-----2------|
Db|--------4*4*4*4*----5*5*5*5*-------------0---------2------------|
Ab|--------2*2*2*2*----5*5*5*5*-----------------------0------------|
Eb|--------------------3*3*3*3*------------------------------------|
Is it the red...                     just pick...  it just...
     ...anymore                  ..I could never...  when the bomb...  

Chorus 2:
eb|--2-2---------0-0----------2-2-----------3-3--------|
Bb|--3---3-------2---2--------3---3---------3---3------|
Gb|--2-----2-----2-----2------4-----4-------0-----0----|
Db|--0-----------2------------4-------------0----------|
Ab|--------------0------------2-------------2----------|
Eb|-----------------------------------------3----------|
 ..explode. ... love you.  ..Forever...  my body...
 ..news      ...over...   ...remember... ..things..
 ..say..   ... smashing..  ..fourth..   ..the one..
 ..door...  ...house... ..was so..   ..yeah here in our...


Bridge:  Our little hooome.....
eb|-2---0---2---3------------|
Bb|-3---2---3---3------------|
Gb|-2---2---4---0------------|
Db|-0---2---4---0------------|
Ab|-----0---2---2------------|
Eb|-------------3------------|


Song Order:
Intro     x1
Verse     x4
Chorus 1  x2
Chorus 2  x4
Verse     x4
Chorus 1  x2
Chorus 2  x4
Bridge    x2


End on:
e|--2-----|
B|--3-----|
G|--2-----|
D|--0-----|
A|--------|
E|--------|
Comments