Rockwell Ryan - I Dont Wanna Sing Chords & Tabs

 

I Dont Wanna Sing Chords & Tabs

Rockwell Ryan Chords & Tabs

Version: 2 Type: Tab 0 ratings
1 star 2 stars 3 stars 4 stars 5 stars
comments

I Dont Wanna Sing Tab

I Don't Wanna Sing
Recorded by Rockwell Ryan
Words and Music by Rockwell Ryan
Tab by Guian Mirabueno

visit www.geocities.com/dangt14/ss

Intro & Verse
--x---x---0---x-|--x---x---x---x-| 
--x---x---0---2-|--x---x---x---x-|
--4---3---1---3-|--4---3---4---6-|
--4---4---2---4-|--4---4---2---4-|
--2---2---2---4-|--2---2---2---4-|
--x---x---0---2-|--x---x---4---6-|


So I'll sit here a while and write a song…
--0---x---x---x-|--x---x-------| 
--0---2---x---x-|--x---x-------|
--1---3---4---6-|--4---6-------|
--2---4---2---4-|--2---4-------|
--2---4---2---4-|--2---4-------|
--0---2---4---6-|--4---6-------|

[ Tab from: http://www.guitartabs.cc/tabs/r/rockwell_ryan/i_dont_wanna_sing_tab_ver_2.html ]
Chorus                I don’t wanna go…
--x---x---x---x-|--x---x---x---x-| 
--x---x---x---x-|--x---x---x---x-|
--4---3---4---4-|--4---3---4---4-|REPEAT
--4---4---4---4-|--4---4---4---4-|2X
--2---2---x---x-|--x---x---x---x-|
--x---x---4---4-|--2---2---0---2-|


It’s better with you…
--x---x---x---|LET
--x---x---x---|THE
--x---x---4---|LAST
--x---x---4---|CHORD
--x---x---x---|RING
--0---0---0---|OUT

Back to Intro & Verse

Then “But I'll wake in a while, and sing a song…”

Then Chorus


Bridge (Better with…Youuuuuuu) Whoooaaahh
--7---7---0---x-|--7---7---x---x-|--x---x---| 
--5---7---0---2-|--5---7---x---x-|--x---x---|
--4---8---1---3-|--4---8---4---6-|--4---6---|
--6---9---2---4-|--6---9---2---4-|--2---4---|
--4---9---2---4-|--4---9---2---4-|--2---4---|
--x---7---0---2-|--x---7---4---6-|--4---6---|

Chorus

End (Same as Intro)
Comments