Rocksteddy - Gising Na Chords & Tabs

 

Gising Na Chords & Tabs

Rocksteddy Chords & Tabs

Version: 1 Type: Tab

Gising Na Tab

   
Gising na 
By: Rocksteddy


PART I

      A    Bm   C#m    D
|---------2222--4444--------------|
|---------3333--5555--------------|
|---------4444--6666--7777--------|   {2x}
|---7777--4444--6666--7777--------|  
|---7777--2222--4444--5555--------|
|---5555--------------------------|

PART II

      A    Bm   C#m    D
|---------2222—-4x4---------------|
|---------3333—-5x5---------------|
|---------4444—-6x6--7777---------|   {2x}
|---7x7---4444—-6x6--7777---------|  
|---7x7---2222—-4x4--5555---------|
|---5x5---------------------------|

PART III


      A    Bm   C#m    D     Bm   D(pause)
|---------2222--4444--------2222-------|
|---------3333--5555--------3333-------|
|---------4444--6666--7777--4444--7----|   
|---7777--4444--6666--7777--4444--7----|  
|---7777--2222--4444--5555--2222--5----|
|---5555-------------------------------|


PART IV

      A    Bm   C#m    Bm                    C#m    Bm            D(pause)
|---------2222--4444--2222--------|      |---4444--2222--------|-------|
|---------3333--5555--3333--------|      |---5555--3333--------|-------|
|---------4444--6666--4444--------| {2x} |---6666--4444---(4x)-|--7----|
|---7777--4444--6666--4444--------|      |---6666--4444--------|--7----|
|---7777--2222--4444--2222--------|      |---4444--2222--------|--5----|
|---5555--------------------------|      |---------------------|-------|


PART V
[ Tab from: http://www.guitartabs.cc/tabs/r/rocksteddy/gising_na_tab.html ]
      A    Bm   C#m    
|---------2222--4444-------------------|
|---------3333--5555-------------------|
|---------4444--6666—-7-6-7-10-9-7-----|
|---7777--4444—-6666--x-x-x-x—-x-x-----|
|---7777—-22222-4444--5-4-5-8--7-5-----|
|---5555-------------------------------|



INTRO: use (PART I & II)

Verse 1 use (PART I)

Bukas sa paggising moy 
babangon ang umaga
dala ang pag-asa na matagal ng nawala
Bukas sa paggising moy
wala na ang problema
nilimot na ng panahon
at inalon na ng alon

Refrain use (PART III)

Handa ng tawirin
handa ng harapin
ang mundo……………….


Chorus use (PART I)

Kayat gising na kaibigan
buksan ang iyong isipan at
subukang pakinggan
Ang tinig ng karamihan 
ang boses ng kabataan 
gising na kaibigan ko
gising na ah…

Repeat (PART II)

verse 2 use (PART I)

Bukas sa paggising moy
sisikat din ang araw
dala ang pag-ibig na matagal ng hinintay
Kung sakali mang dumating at lumipas ang panahon
iyo paring mararamdaman andun parin ang apoy

repeat refrain
repeat chorus

bridge use (PART IV)

ohh, hindi na mangangamba
hindi na malulumbay
hindi na matatakot
Ang puso na muling magmahal
At umibig ng lubos 
Lumipad patungo sa iyong tabi…

Repeat chorus 2x
But on the 2nd chorus use (PART V)

2nd chorus

Kayat gising na kaibigan
buksan ang iyong isipan at
subukang pakinggan
Ang tinig ng karamihan 
ang boses ng puso mo
gising na kaibigan ko
gising na ah…

outro use (PART II)

end…

paki rate nlng p0h salamat

this is ROBERT from the band “HATRED” wala na kasi kaming maisip na pangalan ng banda eh…

MEMBERS:
Rhythm/Vocals: Robert Revila
Lead: Karlos Maria “BUDOY” Aguilar
Bass: Jess “SUSO” Gonzales
Drums: Martin “KALBO” Alano
Keyboards: Jeff “JEFLUGS” Diaz

Epal: Benjamin “PANOT” De Leon

Mabuhay ang OLLSN………………………….