Rockstars Lovefist - Dangerous Bastard Chords & Tabs

 

Dangerous Bastard Chords & Tabs

Rockstars Lovefist Chords & Tabs

Version: 1 Type: Tab 0 ratings
1 star 2 stars 3 stars 4 stars 5 stars
comments

Dangerous Bastard Tab

This is off VRock on GTA: Vice City. Love Fist are only the rockinist hair metal ever.

Aiight, its a basic power chord song with three parts to it.

> = Slide Up
< = Slide Down
* = Let ring

Intro is the chorus minus a few strums. The 10 is a ten, not a one and a zero.

e|-----------------------------------------|
b|-----------------------------------------|
g|-3>>5--5>>10--10-------------------------|
d|-3>>5--5>>10--10--8**********************|
a|-1>>3--3>>8 --8 --8**********************|
e|------------------6**********************|
                   "GOOD EVENING VICE CITY!"
[ Tab from: http://www.guitartabs.cc/tabs/r/rockstars_lovefist/dangerous_bastard_tab.html ]
Second bit, the verse. You gotta be a bit quick with this one. If you are having a
little trouble with the speed then just use the top strings and dont form a power chord.

e|--------------|
b|--------------|
g|------5-3-3-5-|
d|--5-5-5-3-3-5-|
a|--5-5-3-1-1-3-|
e|--3-3---------|

The chorus is basically the intro with a few more strums and a bit at the end instead
of letting it ring out.

e|---------------------------|
b|---------------------------|
g|-55555-10101010------------|
d|-55555-10101010--88888-7-5-|
a|-33333-8 8 8 8 --88888-7-5-|
e|-----------------66666-5-3-|

I wont bother with the solo bits, but the chords in that bit are.

e|----------------|
b|----------------|
g|----3--5--8--10-|
d|-5--3--5--8--10-|
a|-5--1--3--6--8 -|
e|-3--------------|

Tell me how much i rule: drink_beer_and_be_a_hero@hotmail.com
Comments