Rockstars Lovefist - Dangerous Bastard Chords & Tabs

 

Dangerous Bastard Chords & Tabs

Rockstars Lovefist Chords & Tabs

Version: 1 Type: Chords 0 ratings
1 star 2 stars 3 stars 4 stars 5 stars
comments

Dangerous Bastard Chords

   
This is off the Vice City Soundtrack V-Rock station www.rockstar.com

This is my first tab so if you want to hurl abuse then you can email me at
nay69er80@hotmail.com, positive feedback is also good!!?

This works better playing Barre cords

                 
Intro:
Slide Cords  B/C    E/F   Bb                              *2

Play normal    C      F   Bb   slide down >>> Bb A G      *2

Verse:
G  C  then take your 4th finger off and play all the strings on the 3rd position
then play  3, 4 and 5 (Bb B C) on your D string. 

G  C  then take your 4th finger off and play all the strings on the 3rd position
No run at the end      

Play this 4 times

Pre Chours:

G pm.......  then play
e --------------
b --------------
g ---5-3---3-5--
d -------5------
a --------------
E --------------

Chours:
[ Tab from: http://www.guitartabs.cc/tabs/r/rockstars_lovefist/dangerous_bastard_crd.html ]
same as intro with the run at the eng

Verse: Ditto

Chours: Ditto

then there is a weird bit near the end

E-mail me at nay69er80@hotmail.com if u really want to no it but its not hard to work out

its basically 

e----------------------------
b----------------------------
g--------------------5-6-7---
d--------------5-6-8---------
a--------3-4-5---------------
E--3-4-6---------------------

  G              Bb                C(10th) Primary       Eb   F
e---------------/-----------------/---------------------/---------
b---------------/-----------------/---------------------/---------
g---------------/-----------------/---------------------/---------
d---------------/-----------------/---------------------/---------
a--------4-5-6--/----------8-9-10-/------------11-12-13-/---------
E--4-5-7--------/--8-10-11--------/--11-12-14-----------/---------


Good Look, I might to the Fist Fury one sometime
Comments