Rockness - The Reason Of The Ness Chords & Tabs

 

The Reason Of The Ness Chords & Tabs

Rockness Chords & Tabs

Version: 1 Type: Tab 0 ratings
1 star 2 stars 3 stars 4 stars 5 stars
comments

The Reason Of The Ness Tab

   
#----------------------------------PLEASE NOTE---------------------------------#
#This file is the author's own work and represents their interpretation of the #
#song. You may only use this file for private study, scholarship, or research. #
#------------------------------------------------------------------------------##

                             THE REASON OF THE NESS
                             As recorded by Rockness


Gtr I (E A D G B E) - 'Untitled'

 4/4
  Gtr I
  E E E E E E E E E E E E E E E E   E E E E E E E E   E E E E E E E E
|---------------------------------|-----------------|-----------------|
|---------------------------------|-----------------|-----------------|
|---------------------------------|-----------------|-----------------|
|---9-------7---------5-----5-5---|---9-------7-----|-----5-----5-5---|
|-----9-------7-----5-----5-------|-----9-------7---|---5-----5-------|
|-7-------5-----3-------3---------|-7-------5-----3-|-------3---------|


  E E E E E E E E   E E E E E E E E   E E E E E E E E   E E E E E E E E
|-----------------|-----------------|-----------------|-----------------|
|-----------------|-----------------|-----------------|-----------------|
|-----------------|-----------------|-----------------|-----------------|
|---9-------7-----|-----5-----5-5---|---9-------7---5-|---5-5-5-5-5-5-5-|
|-----9-------7---|---5-----5-------|-----9-------7-5-|---5-5-5-5-5-5-5-|
|-7-------5-----3-|-------3---------|-7-------5-----3-|---3-3-3-3-3-3-3-|


  E E E E E E E E E E E E E E E E   E E E E E E E E   E E E E E E E E
|---------------------------------|-----------------|------------------|
|---------------------------------|-----------------|------------------|
|---------------------------------|-----------------|------------------|
|-9---9-9-7-7-7-5---5-5-5-5-5-5-5-|-9---9-9-7-7-7-5-|---5-5-5-5-5-5-5--|
|-9---9-9-7-7-7-5---5-5-5-5-5-5-5-|-9---9-9-7-7-7-5-|---5-5-5-5-5-5-5--|
|-7---7-7-5-5-5-3---3-3-3-3-3-3-3-|-7---7-7-5-5-5-3-|---3-3-3-3-3-3-3--|


  E E E E E E E E   E E E E E E E E   E E E E E E E E   E E E E E E E E
|-----------------|-----------------|-----------------|-----------------|
|-----------------|-----------------|-----------------|-----------------|
|-----------------|-----------------|-----------------|-----------------|
|-9---9-9-7-7-7-5-|---5-5-5-5-5-5-5-|-9---9-9-7-7-7-5-|---5-5-5-5-5-5-5-|
|-9---9-9-7-7-7-5-|---5-5-5-5-5-5-5-|-9---9-9-7-7-7-5-|---5-5-5-5-5-5-5-|
|-7---7-7-5-5-5-3-|---3-3-3-3-3-3-3-|-7---7-7-5-5-5-3-|---3-3-3-3-3-3-3-|

[ Tab from: http://www.guitartabs.cc/tabs/r/rockness/the_reason_of_the_ness_tab.html ]
  E E E E E E E E   E E E E E E E E   E E E E E E E E   E E E E E E E E
|-----------------|-----------------|-----------------|-----------------|
|-----------------|-----------------|-----------------|-----------------|
|-----------------|-----------------|-----------------|-----------------|
|---9-------7-----|-----5-----5-5---|---9-------7-----|-----5-----5-5---|
|-----9-------7---|---5-----5-------|-----9-------7---|---5-----5-------|
|-7-------5-----3-|-------3---------|-7-------5-----3-|-------3---------|


   Q      S  S  S  S S S S S S S S S S S S S S S S S S S S S S S S S  S  S  S  S
|-12b14--12-10-------------------------------------------------------------10-12-|
|--------------12-10-8---------------------------------------------8-10-12-------|
|----------------------9-7-------------------------------------7-9---------------|
|--------------------------9-7-5-------------------------5-7-9-------------------|
|--------------------------------7-5-----------------5-7-------------------------|
|------------------------------------7-5-3-0-0-3-5-7-----------------------------|
   S


  E E E E E E E E   E E E E E E E E   E E E E E E E E   E E E E E E E E
|-----------------|-----------------|-----------------|------------------|
|-----------------|-----------------|-----------------|------------------|
|-----------------|-----------------|-----------------|------------------|
|-9---9-9-7-7-7-5-|---5-5-5-5-5-5-5-|-9---9-9-7-7-7-5-|---5-5-5-5-5-5-5--|
|-9---9-9-7-7-7-5-|---5-5-5-5-5-5-5-|-9---9-9-7-7-7-5-|---5-5-5-5-5-5-5--|
|-7---7-7-5-5-5-3-|---3-3-3-3-3-3-3-|-7---7-7-5-5-5-3-|---3-3-3-3-3-3-3--|


  E E E E E E E E   E E E E E E E E   E E E E E E E E   E E E E E E E E
|-----------------|-----------------|-----------------|-----------------|
|-----------------|-----------------|-----------------|-----------------|
|-----------------|-----------------|-----------------|-----------------|
|---9-------7-----|-----5-----5-5---|---9-------7-----|-----5-----5-5---|
|-----9-------7---|---5-----5-------|-----9-------7---|---5-----5-------|
|-7-------5-----3-|-------3---------|-7-------5-----3-|-------3---------|


Duration Legend
---------------
W - whole; H - half; Q - quarter; E - 8th; S - 16th; T - 32nd; X - 64th; a - acciaccatura
+ - note tied to previous; . - note dotted; .. - note double dotted
Uncapitalized letters represent notes that are staccato (1/2 duration)
Irregular groupings are notated above the duration line
Duration letters will always appear directly above the note/fret number it represents the
duration for.  Duration letters with no fret number below them represent rests.  Multi-
bar rests are notated in the form Wxn, where n is the number of bars to rest for.  Low
melody durations appear below the staff

Tablature Legend
----------------
 h   - hammer-on
 p   - pull-off
 b   - bend
 pb  - pre-bend
 r   - bend release (if no number after the r, then release immediately)
 /\  - slide into or out of (from/to "nowhere")
 s   - legato slide
 S   - shift slide
  - natural harmonic
[n]  - artificial harmonic
n(n) - tapped harmonic
 ~   - vibrato
 tr  - trill
 T   - tap
 TP  - trem. picking
 PM  - palm muting
\n/  - tremolo bar dip; n = amount to dip
 \n  - tremolo bar down
 n/  - tremolo bar up
/n\  - tremolo bar inverted dip
 =   - hold bend; also acts as connecting device for hammers/pulls
   - volume swell (louder/softer)
 x   - on rhythm slash represents muted slash
 o   - on rhythm slash represents single note slash

Misc Legend
-----------
 |  - bar
||  - double bar
||o - repeat start
o|| - repeat end
*|  - double bar (ending)
 :  - bar (freetime)
 $  - Segno
 &  - Coda
Tempo markers -  = BPM(8/16=s8/s16), where s8 = swing 8ths, s16 = swing 16ths
Comments