Rocket From The Crypt - This Way Out Chords & Tabs

 

This Way Out Chords & Tabs

Rocket From The Crypt Chords & Tabs

Version: 1 Type: Bass Tab 0 ratings
1 star 2 stars 3 stars 4 stars 5 stars
comments

This Way Out Bass Tab

Band: Rocket From The Crypt
Song: This Way Out
Album: Before You Were Punk 2

Tabbed by: Shaun McDonald 

. pause
\ slide down

I'm not 100% sure about the slides but they sound alright

Intro:  (4x)

G|----------------|----------------|
D|----------------|----------------|
A|----6-----------|----------------|
E|4-4-----0---0---|2-0-2-0-4.------|


Verse1:  (8x)

G|----------------|----------------|
D|----------------|----------------|
A|----6-----------|----------------|
E|4-4-----0---0---|2-0-2-0-4-------|


Chorus:  (2x)

G|----------------|----------------|----------------|----------------|
D|----------------|----------------|----------------|----------------|
A|2-2-2-2-2-2-2-2-|----------------|2-2-2-2-2-2-2-2-|----------------|
E|----------------|0-0-0-0-0-0-0-0-|----------------|0-0-0-0-0-0-0-0-|
[ Tab from: http://www.guitartabs.cc/tabs/r/rocket_from_the_crypt/this_way_out_btab.html ]
G|----------------|----------------|----------------|----------------|
D|----------------|----------------|----------------|----------------|
A|2-2-2-2-2-2-2-2-|----------------|------------9\--|------------9\--|
E|----------------|0-0-0-0-0-0-0-0-|2-0-2-0-4-------|2-0-2-0-4-------|

G|----------------|----------------|
D|----------------|----------------|
A|------------9\--|------------9\--|
E|2-0-2-0-4-------|2-0-2-0-4-------|


Verse2:  (8x)

G|----------------|----------------|
D|----------------|----------------|
A|----6-6---------|----------------|
E|4-4-----0-0-0-0-|2-0-2-0-4-4-4-4-|


Chorus (1x)

"Solo": (20x)

G|----------------|
D|----------------|
A|------------9\--|
E|2-0-2-0-4-------|

Chorus (1x)

Intro (2x)

Verse1 (4x)

Outro: (4x)

G|----------------|----------------|
D|----------------|----------------|
A|----6-6---------|------------9\--|
E|4-4-----0-0-0-0-|2-0-2-0-4-4-----|

Comments