Rocket From The Crypt - Im Not Invisible Chords & Tabs

 

Im Not Invisible Chords & Tabs

Rocket From The Crypt Chords & Tabs

Version: 1 Type: Bass Tab 0 ratings
1 star 2 stars 3 stars 4 stars 5 stars
comments

Im Not Invisible Bass Tab

                  Rocket from the Crypt
      INTRO                       Main Riff
        |--------------|       |--------------------|
        |--------------|       |--------------------|
        |---\7-5-2-020-|       |----333------020----| X12
        |-0------------|       |-00-----2323-----32-|
      Pre chorus
        |----------------------------------------------|
        |------------------------------------2222---2--|
        |----333----22-333-3333--------22-202----20----|
        |-00-----33------------333-3333------------3---|
[ Tab from: http://www.guitartabs.cc/tabs/r/rocket_from_the_crypt/im_not_invisible_btab.html ]
        |----------------------------------------------|
        |----------------------------------------------|
        |-3333333-------22222222222222-----------------|
        |--------3333333-------------------------------|
        Chorus
        |----------------------------------------------|
        |----------------------------------------------|
        |----333---222---------------------------------| X6
        |-000---333------------------------------------|
      Bass solo
        |----------------------------------------------|
        |---2----2-------------------------------------|
        |----------------------------------------------|
        |-00-0000-00-0-00------------------------------|

        |----------------------------------------------|play this measure
        |--------4545-74754----------------------------|4 times just bass
        |----333---------------------------------------|then 4 times with
        |-00-------------------------------------------|guitar

 pre chorus 2
        |----------------------------------------------------|
        |----------------------------------------------------|
        |-3333333-------2222----3333333-------22222222222222-|
        |--------3333333----0000-------3333333---------------|

        play chorus right after pre chorus 2

       Ending
        |----------------------------------------------------------|
        |----------------------------------------------------------|
        |---5333---0222--5333---0222----22332200--222222222222222--|
        |-00----333----00----333----0033--------00-----------------|

         then play the main riff and your finished  JON RIZZI
Comments