Rock N Roll Soldiers - Funny Little Feeling Chords & Tabs

 

Funny Little Feeling Chords & Tabs

Rock N Roll Soldiers Chords & Tabs

Version: 2 Type: Tab 0 ratings
1 star 2 stars 3 stars 4 stars 5 stars
comments

Funny Little Feeling Tab

the other intro that was submitted for this song sounded o.k. but some of the notes were 
and 2 high. here is the right way to play the intro.


e--------------------------------|
B---12-14-12-15-12-10-12---------|
G-11-------------------- repeat--| 1x
D--------------------------------|
A--------------------------------|
E--------------------------------|

[ Tab from: http://www.guitartabs.cc/tabs/r/rock_n_roll_soldiers/funny_little_feeling_tab_ver_2.html ]
e-------------------------------------17----------|b*
B---12-14-12-15-12-17--15-12-17--15-12------------|
G-11----------------------------------------------|
D-------------------------------------------------|
A-------------------------------------------------|      *Hold final note on e
E-------------------------------------------------|       string half sec. then bend
                                                 up.

this is how the intro goes, just listen to the song and play with it.

happy playing,
alex n.
Comments