Rock N Roll Soldiers - Anthem Chords & Tabs

 

Anthem Chords & Tabs

Rock N Roll Soldiers Chords & Tabs

Version: 1 Type: Tab

Anthem Tab

                              ROCK N ROLL SOLDIERS
                                     ANTHEM


STANDARD TUNING
EADGBe


----5------8------1------2-------------|
----5------8------1------3-------------|
----6------9------2------2-------------|
----7-----10------3------0-------------|
----7-----10------3------0-------------|
----5------8------1------x-------------|

----5------8------1------22222---------|
----5------8------1------33333---------|
----6------9------2------22222---------|
----7-----10------3------00000---------|
----7-----10------3------00000---------|
----5------8------1------xxxxx---------|

------------5------------5------------5--7br-7br-7br------|
--------5-8----------5-8----------5-8---------------8-----|
----5-7----------5-7----------5-7-------------------------|
--7------------7------------7-----------------------------|
----------------------------------------------------------|
----------------------------------------------------------|

------------5------------5------------5--7b-7b-7b-7b-5----|
--------5-8----------5-8----------5-8---------------------|
----5-7----------5-7----------5-7-------------------------|
--7------------7------------7-----------------------------|
----------------------------------------------------------|
----------------------------------------------------------|

then the verse comes
[ Tab from: http://www.guitartabs.cc/tabs/r/rock_n_roll_soldiers/anthem_tab.html ]
chorus
----5------8------1------2------5------8------3------11111-----|
----5------8------1------3------5------8------3------11111-----|
----6------9------2------2------6------9------4------22222-----|
----7-----10------3------0------7-----10------5------33333-----|
----7-----10------3------0------7-----10------5------33333-----|
----5------8------1------x------5------8------3------11111-----|

after the second chorus
-----------------------------------------------------------------|
-----------------------------------------------------------------|
-----------------------------------------------------------------|
-10(x10)-99-1010-99-7---10(x10)-99-1010-1111-12(x8)-13(x8)-------|
--8------77--8-8-77-5----8------77--8-8--9-9-10-----11-----------|
-----------------------------------------------------------------|

------------5------------5------------5--7br-7br-7br------|
--------5-8----------5-8----------5-8---------------8-----|
----5-7----------5-7----------5-7-------------------------|
--7------------7------------7-----------------------------|
----------------------------------------------------------|
----------------------------------------------------------|

------------5------------5------------5--7b-7b-7b-7b-5----|
--------5-8----------5-8----------5-8---------------------|
----5-7----------5-7----------5-7-------------------------|
--7------------7------------7-----------------------------|
----------------------------------------------------------|
----------------------------------------------------------|

play the chorus as the outro
thats it
peace