Robinson Tom - 2 4 6 8 Motorway Chords & Tabs

 

2 4 6 8 Motorway Chords & Tabs

Robinson Tom Chords & Tabs

Version: 1 Type: Tab 1 rating
1 star 2 stars 3 stars 4 stars 5 stars
comments

2 4 6 8 Motorway Tab

Song: 2 4 6 8 Motorway
Band: Tom Robinson Band
Tabbed by: swede22
 
Intro:
E|----------------|
B|----------------|
G|----------------|
D|----------------|
A|--7-9-7-7-9-7---|
E|--5-7-5-5-7-5---| Repeat 4 times
 

(Play this two parts the whole song)
E|---------------------------------------|  
B|---------------------------------------|
G|---------------------------------------|
D|---------------------------------------|
A|--9-9-9-9--7-7-7-7--5-5--7-7--9-9-9-9--|
E|--7-7-7-7--5-5-5-5--3-3--5-5--7-7-7-7--|

E|---------------------------------|  
B|---------------------------------|
G|---------------------------------|
D|---------------------------------|
A|--9-9-9-9--7-7-7-7--5-5--7-7--9--|
E|--7-7-7-7--5-5-5-5--3-3--5-5--7--|

[ Tab from: http://www.guitartabs.cc/tabs/r/robinson_tom/2_4_6_8_motorway_tab.html ]
The solo: 
E|------------------------------------------------------------|  
B|--12-------15--12-15-12-----12-------------------12---------|
G|-----14-12---------------14----14-12-------12-14----14-12---|
D|-------------------------------------12-14------------------|
A|------------------------------------------------------------|
E|------------------------------------------------------------|

E|-----------------------------------------------|  
B|--12-----------12-----------12-----------------|
G|-----14--12-12----14--12-12----14--12-12--14---|
D|-----------------------------------------------|
A|-----------------------------------------------|
E|-----------------------------------------------|

E|-------------------------------|  
B|--------------12---------------|
G|--------12-14----12-14--14-12--|
D|--12-14------------------------|
A|-------------------------------|
E|-------------------------------|

The solo isn’t 100% correct, if you know how to play it correct,
please e-mail me.

hampus_lager@homail.com
Comments