Robin Trower - The Fool And Me Chords & Tabs

 

The Fool And Me Chords & Tabs

Robin Trower Chords & Tabs

Version: 1 Type: Bass Tab 0 ratings
1 star 2 stars 3 stars 4 stars 5 stars
comments

The Fool And Me Bass Tab

Artist:Robin Trower
Song:The Fool And Me
Album:Bridge Of Sighs
Tabbed By:Gary Hricewich
E-mail:snapper2001@msn.com
[ Tab from: http://www.guitartabs.cc/tabs/r/robin_trower/the_fool_and_me_btab.html ]
                                        
Guitar Intro 
G-----------|--------------------------|
D-----------|--------------------------|
A-----------|-5-5-0--5-5-0--5--5-3-----|
E-----------|----------------------5-3-|
                                        
                                                      
 Part 1                           7x
G-----------------------------------|----------------|
D-----------------------------------|----------------|
A---5-3-5-0--2-3-4---5-3-5-0--0-3-4-|-5-3-5-0--2-3-4-|
E-----------------------------------|----------------|
                                                      
                                         
                       2x      Part 1 End
G--------------|---------|----|---------|
D--------------|---------|----|---------|
A---5-3-5-0----|-5-3-5-0-|-5--|-5-3-----|
E------------1-|---------|----|-----5-3-|
                                         
                                                                 
 Part 1     Part 2
G---------|-----------------------------------------------------|
D---------|-----------------------------------------------------|
A---------|-5-3-5-3-5-3-5-3-5-3-5-3-5-3-5-3-5-3-5-3-5-3-5-3-5-3-|
E---------|-----------------------------------------------------|
                                                                 
                                           
 Part 1        Part 2      Part 1/Fade Out                            
G-------------|-----------|-------------|
D-------------|-----------|-------------|
A-------------|-----------|-------------|
E-------------|-----------|-------------|
Comments