Robin Trower - Day Of The Eagle Chords & Tabs

 

Day Of The Eagle Chords & Tabs

Robin Trower Chords & Tabs

Version: 1 Type: Bass Tab 0 ratings
1 star 2 stars 3 stars 4 stars 5 stars
comments

Day Of The Eagle Bass Tab

Artist:Robin Trower
Song:Day Of The Eagle
Album:Bridge Of Sighs
Tabbed By:Gary Hricewich
E-mail:snapper2001@msn.com
[ Tab from: http://www.guitartabs.cc/tabs/r/robin_trower/day_of_the_eagle_btab.html ]
                                     
   Intro                 
G---------------------------------|
D---------------------------------|
A-------------2-4-----------------|
E---0-2-4-2-4---------------------|
                                     
                                     
   Verse                 
G---------------------------------|
D---------------------------------|
A---4-2-4-----2-3-----------------|
E---------0-2---------------------|
                                     
                                                  
   Bridge
G-----4---4------------------|-------------------|
D----------------------------|---6---6---7---4-2-|
A---2---2---4------------2-4-|-------------------|
E--------------0-2-4-2-4-----|-4---4---5---2-----|
                                                  
                                                         
   End/Slow Part    4x               12x             12x
G----------------------|----------------|---------------|
D----------------------|----------------|-----------2---|
A---------2-4---4------|-------2-4-4----|-------2-4---4-|
E---0-2-4-----0--------|-0-2-4----------|-0-2-4---------|
Comments