Robi Draco Rosa - Mourning Gun Blanca Mujer Chords & Tabs

 

Mourning Gun Blanca Mujer Chords & Tabs

Robi Draco Rosa Chords & Tabs

Version: 1 Type: Tab 0 ratings
1 star 2 stars 3 stars 4 stars 5 stars
comments

Mourning Gun Blanca Mujer Tab

These are the riffs for the entire song:

RIFF 1
e|-------------------------------------------------------------|
B|----------------1-------1------------------------------------|
G|-------------0-----0^2--------------0------0-----------------|
D|----5--4---2----------------------0------0-----------0-------|
A|-7---------------------------0--2----0-------------0------2--|
E|---------------------------------------2------2--1--------0--|

RIFF 2
e|-------------------------------------------------------------|
B|---------1---------------------------------------------------|
G|------2------2--------2-----------------------------------0--|
D|---2-------2--------0---------2----------2-------0-0-0^2-----|
A|-0--------------0-2-----0---0---------0-------2--------------|
E|--------------------------2------2-1-----1-0-----------------|
[ Tab from: http://www.guitartabs.cc/tabs/r/robi_draco_rosa/mourning_gun_blanca_mujer_tab.html ]
RIFF 3
e|-------------------------------------------------------------|
B|----------------------------1--------------------------------|
G|-------0-------0---------2------------------------------0----|
D|----2--------0---------2-----------0--------0--------2-------|
A|-3-------3-2-------2-0-----------2-------2---------2---------|
E|-------------------------------3------2--------2-0-----------|

Just follow the riffs for the song:

RIFF 1  x2 (Intro)

RIFF 2  x2
  Here we are like a gun in the snow and we're going in time
  Morning comes and I feel there's a way yet I don't really know

RIFF 3  x4
  If it is you that I love when alone
  but I know tomorrow is gone
  Maybe there's no time to reframe
  Our lives have become mourning dawn
  Gotta gotta feel my disease
  Got misfortune crawling under my sleeve
  The king of faith is calling my name
  Jackleisa has an neddle in me

RIFF 1  x2

RIFF 2  x2
  He said that is far from control and that he knows
  She said that an urge to be alive everytime we fly

RIFF 3  x7
  It is you that I love when alone
  but I know tomorrow is gone
  maybe theres no time to reframe
  Our lives have become mourning dawn
  Gotta gotta feel my disease
  Got misfortune crawling under my sleeve
  The king of faith is calling my name
  Jackleisa has an needle in me
  Gotta gotta feel my disease
  Got misfortune crawling under my sleeve
  The king of faith is calling my name
  Jackleisa has an needle in me
  got misfortune crawling under my sleeve
  yeah... you gotta feel my disease

  From:www.atame.org
Comments