Robert Palmer - Sneaking Sally Through The Alley Chords & Tabs

 

Sneaking Sally Through The Alley Chords & Tabs

Robert Palmer Chords & Tabs

Version: 1 Type: Bass Tab

Sneaking Sally Through The Alley Bass Tab

   
---------------------------------------------------------------------------
	   SNEAKING SALLY THROUGH THE ALLEY - Robert Palmer
---------------------------------------------------------------------------

Tabbed By:  Tim Orsi
e-mail:     tim_orsi2005@hotmail.com

Tuning:  Standard(EADG)


Be kind . . . this is my first tab!


Main riff (add t-wah for that funky edge): 

                                     |h       |h         
G|-------------------------------9---78---9---78--------------------------|
D|---------------------------------9----9---9----9--9---79----------------|
A|-----------------------7-75--5----------------------9-------------------|
E|-7----7----7-5----77--7-----------------------------------7-------------|


Another variation on riff: 
[ Tab from: http://www.guitartabs.cc/tabs/r/robert_palmer/sneaking_sally_through_the_alley_btab.html ]
                                       |h        |h        
G|----------------------------76---9---78----9---78-----------------------|
D|------------------------------9----9----9----9----9--9---79-------------|
A|-----------------------7-75----------------------------9----------------|
E|-7----7----7-5----77--7--------------------------------------7---etc----|


Bridge (Sustain notes -- let'em ring)


G|------------------------------------------------------------------------|
D|------------------------------------------------------------------------|
A|-7-----------7----5---------7-------------------------------------------|
E|------5----------------5-----------(return to main riff)----------------|


That's about it -- listen to song for actual timing.  
Remember to funk it up! 


| /  slide up
| \  slide down
| h  hammer-on
| p  pull-off
| ~  vibrato
| +  harmonic
| x  Mute note
===============================================================================