Robert Palmer - Johnny And Mary Chords & Tabs

 

Johnny And Mary Chords & Tabs

Robert Palmer Chords & Tabs

Version: 2 Type: Tab 0 ratings
1 star 2 stars 3 stars 4 stars 5 stars
comments

Johnny And Mary Tab

This goes all over the song.

E|---------|---------|---------|--------||
B|-------3-|-5-5-5-3-|---------|--------||
G|-3-5-6---|---------|-6-6-6-5-|-5-3-3--||
D|---------|---------|---------|--------||
A|---------|---------|---------|--------||
E|---------|---------|---------|--------||
[ Tab from: http://www.guitartabs.cc/tabs/r/robert_palmer/johnny_and_mary_tab_ver_2.html ]
E|---------|---------|---------|--------||
B|-------3-|-5-5-5-3-|---------|--------||
G|-3-5-6---|---------|-6-6-6-5-|-5^-----||
D|---------|---------|---------|--------||
A|---------|---------|---------|--------||
E|---------|---------|---------|--------||

E|-----------|---------------||
B|-----------|---------------||
G|-5-3-------|-------3-5-6-3-||
D|-----6-5-3-|-3-5-6---------||
A|-----------|---------------||
E|-----------|---------------||


by ThunderKitty

absolutely_blue@hotmail.com
Comments