Robert Miles - Children Chords & Tabs

 

Children Chords & Tabs

Robert Miles Chords & Tabs

Version: 3 Type: Tab 0 ratings
1 star 2 stars 3 stars 4 stars 5 stars
comments

Children Tab

Robert Miles - Children
tabbed by Hugo Harding

This is just the tune of this track.
I think its better than the other two on this site and I know that this is right.

[ Tab from: http://www.guitartabs.cc/tabs/r/robert_miles/children_tab_ver_3.html ]
---4-3-----4-3----4-3------------1--4-3----|
-6-----4-----------------------1--------4--|
---------------5------1----0-1-------------|
-------------------------3-----------------|
-------------------------------------------|
-------------------------------------------|


-------------------------------------------|
-2-1-2-1-------1---------------------------|
---------1-0-1-----------------------------|
-----------------3-------------------------|
-------------------------------------------|
-------------------------------------------|


Great tune,
any comments email hugo_harding@hotmail.com
Comments