Robert Johnson - Sweet Home Chicago Chords & Tabs

 

Sweet Home Chicago Chords & Tabs

Robert Johnson Chords & Tabs

Version: 3 Type: Tab 0 ratings
1 star 2 stars 3 stars 4 stars 5 stars
comments

Sweet Home Chicago Tab

   
SWEET HOME CHICAGO
As recorded by Robert Johnson
(From the 1990 Album ROBERT JOHNSON : THE COMPLETE RECORDINGS) 

Words & Music by Robert Johnson

Gtr I (E A D G B E) - 'Robert Johnson - steel string acoustic w/capo at 2nd fret'

Intro
  Q=94(8=s8)
 4/4
  Gtr I
                                                   |-3--|
  H    E  E  E  E    E  E  E  E  E  E  E  E    E E E E +E  E Q   E
|--------12-12-12-|-12-12-12-12-12-12-12-10-|-10-0------------------||
|-----------------|-------------------------|-----------------------||
|-----------------|-------------------------|--9-----2-(2)-2-2------||
|-----------------|-11----------10----10--9-|--9-0-1-------1--------||
|-----------------|-------------------------|------2-------2--------||
|-----------------|-------------------------|------2-------2---2----||
                     H           Q     E  E    E E Q       Q   E E


 Verse 1
                                                        |3-|
  E E E E E E E E   H       +Q.     E   E Q.     +Q    +E  Q
|-----------------|-0-------(0)-------|---0------(0)---(0)-----|
|-----------------|-------------------|------------------------|
|-0-------------0-|-----------------0-|-0------------------0---|
|---------0---0---|-2---4----5----4---|------------------------|
|-2---4---2-2-4---|-0-0-0-0--0--0-0---|-2----4-x--2-----4----4-|
|-0---0-0-0-0-0---|-------------------|-0----0----0--0--0----0-|
                    E E E E  E  E E E   E E  E E  E  E  E    E


  E Q.     +Q    E E   E E E E E E E E   E Q.     +Q.     E
|---0------(0)-------|-----------------|---0------(0)-------|
|--------------------|-----------------|--------------------|
|------------------0-|-----------------|------------------0-|
|--------------------|-2---4---2-2-4-5-|-2----4----5----4-2-|
|-5----4-4--2--2-4---|-0-0-0-0-0-0-0-0-|-0-0--0-0--0--0-0-0-|
|-0-0--0-0--0--0-0---|-----------------|--------------------|
  E E  E E  E  E E E                     E E  E E  E  E E E


                  |-3--|
  E Q.     +Q    +E  E E   E Q.     +Q    Q     Q  E E +Q.    E
|---0------(0)---(0)-----|---0------(0)-------|-----------------|
|------------------------|--------------------|------0-(0)------|
|-0------------------0-0-|-0------------------|---------------0-|
|-----------0------------|--------------------|-1--1----1-------|
|-2----4----2-----4----4-|-2----4-4--2----4---|-2--2----2---2---|
|-0----0-0--0--0--0----0-|-0-0--0-0--0--0-0-2-|-2--2------------|
  E E  E E  E  E  Q    E   E E  E E  E  E E E   Q  Q    Q   Q
                  |-3--|


  E     E     E     E     E     E E E
|-7-----7-----7-----7-----7---------0-|
|-8b8.5-8b8.5-8b8.5-8b8.5-8b8.5-0-2---|
|-------------------------------------|
|-------------------------------------|
|-------------------------------------|
|-------------------------------------|


       |-3-|                 |-3-|
  +Q   E E E E E E   E   E E E E E E Q   E
|-(0)------0---0-----0-|-------------------||
|--------3---2---1-----|---0-0-----0-------||
|------4-----3---2-0h1-|-------2-2---2---0-||
|----------------------|-2---------1---1---||
|----------------------|-2---2-----2---2---||
|----------------------|-0-2-2-----2---2---||
   Q   Q     Q   E a E   E E Q     Q   E E


 Verse 2
                                                     |-3-|
  E E E E E E E E   H       +Q.     E   E Q.     Q   E E E
|-----------------|-0-------(0)-------|-0-0----------------|
|-----------------|-------------------|--------------0-0-0-|
|-0-----------0-0-|-----------------0-|--------------------|
|-----------------|-2---4----5--5-4---|----------0---------|
|-2---4---2-2-4-0-|-0-0-0-0--0--0-0-0-|-2----4-4-2---4---4-|
|-0---0-0-0-0-0---|-------------------|-0-0--0-0-0-0-0---0-|
                    E E E E  E  E E E   E E  E E E E Q   E
                                                     |-3-|


   E  Q.     +Q    Q     +H        +Q.     E   E Q.     +Q    Q
|--0--0------(0)---0---|-(0)-------(0)-------|-0-0------(0)---0---|
|-(0)----------------0-|---------------------|--------------------|
|----------------------|-------------------0-|------------------0-|
|--0----------0------0-|--2----4-4--5--5-4---|--------------------|
|--2-----4-4--2----4---|--0--0-0-0--0--0-0-0-|-2----4-4--5--5-4-0-|
|--0--0--0-0--0--0-0---|---------------------|-0-0--0-0--0--0-0---|
   E  E  E E  E  E E E    E  E E E  E  E E E   E E  E E  E  E E E


                  |-3--|
  E Q.     +Q    +E  E E   E Q.     +Q.     E   +E  E E E +Q   Q
|---0------(0)---(0)-----|---0------(0)-------|--------------------|
|-0------------------0-0-|------------------0-|-(0)-0-0-0-(0)------|
|------------------------|-0------------------|--------------------|
|-----------0------------|-----------0--------|--1----1----1---1---|
|-2----4----2-----4----4-|-2-2--4-4--2----4---|--2----2----2---2---|
|-0----0-0--0--0--0----0-|-0-0--0-0--0--0-0---|--2----2----2---2---|
  E E  E E  E  E  Q    E   E E  E E  E  E E E    Q    Q    Q   E E
                  |-3--|


  E     E     E     E     E     E E E
|-7-----7-----7-----7-----7-----0---0-|
|-8b8.5-8b8.5-8b8.5-8b8.5-8b8.5---2---|
|-------------------------------------|
|-------------------------------------|
|-------------------------------------|
|-------------------------------------|


       |-3-|                   |-3-|
  +Q   E E E E E E   E    E  E E E E E Q   E
|-(0)------0---0-----0-|-(0)-----------------||
|--------3---2---1-----|-----0-0-----0-0-----||
|------4-----3---2-0h1-|--1------2-2-------0-||
|----------------------|-------1-----1-------||
|----------------------|--2----2-----2---2---||
|----------------------|--0--2-2-----2---2---||
   Q   Q     Q   E a E    E  E Q     Q   E E


 Verse 3
  E E E E E E E E   E E E E E E E E   E E E E E E E E
|-----------------|-----------------|-----------------|
|-----------------|-----------------|-----------------|
|-0-----------0-0-|-0-------------0-|-0-------------0-|
|---------0-------|---------0-------|---------0-------|
|-2---4---2---4---|-2---4---2---4---|-2---4---2---4---|
|-0-0-0-0-0-0-0-0-|-0-0-0---0-0-0-0-|-0-0-0-0-0-0-0-0-|


  E E E E E Q   E   E E E E E E E E   H.           Q
|-----------------|-----------------|-0----------------|
|-----------------|-----------------|------------------|
|-0-0-0-0-0-0---0-|-----------------|------------------|
|-----------------|-2---4---5-5-4-5-|-2----4-4-5---4-2-|
|-2---4-2-2---4-0-|-0-0-0-0-0-0-0-0-|-0--0-0-0-0-0-0-0-|
|-0-0-0-0-0-0-0---|-----------------|------------------|
  E E E E E E E E                     E  E E E E E E E


                  |-3--|
  E Q.     +Q    +E  E E   E Q.     +H          E E Q  +E  Q   E
|---0------(0)---(0)-----|---0------(0)-------|------------------|
|--------------------0-0-|--------------------|-----0--(0)-0-----|
|-0----------------------|-0------------------|---2------------2-|
|------------------------|-----------0--------|-1---1---1----1---|
|-2----4----2-----4----4-|-2----4-4--2----4---|-2---2---2----2-0-|
|-0----0-0--0--0--0----0-|-0-0--0-0--0--0-0-0-|-2---2---2----2-0-|
  E E  E E  E  E  Q    E   E E  E E  E  E E E   Q   Q   Q    E E
                  |-3--|


  E     E     E     E     E     E E E
|-7-----7-----7-----7-----7-----0---0-|
|-8b8.5-8b8.5-8b8.5-8b8.5-8b8.5---2---|
|-------------------------------------|
|-------------------------------------|
|-------------------------------------|
|-------------------------------------|

[ Tab from: http://www.guitartabs.cc/tabs/r/robert_johnson/sweet_home_chicago_tab_ver_3.html ]
       |-3-|                   |-3-|
  +Q   E E E E E E   E    E  E E E E E Q   E
|-(0)------0---0-0---0-|-(0)-----------------||
|--------3---2---1---0-|-(0)-0-0---0-0-0-----||
|------4-----3---2-0h1-|--1------2---------0-||
|----------------------|-------1---------1---||
|----------------------|--2----2---------2---||
|--0-------------------|--0--2-2---2-2-2-2---||
   Q   Q     Q   E a E    E  E Q   E E E E E
                               |-3-|


 Verse 4
  E E E E E E E E   E Q.     +Q.     E   E Q.     +Q.     E
|-----------------|---0------(0)-------|---0------(0)-------|
|-----------------|--------------------|--------------------|
|-0-------0-----0-|-0----------------0-|-0----------------0-|
|---------0-------|-----------0--------|-----------0--------|
|-2---4---2-2-4---|-2----4----2----4---|-2----4----2----4---|
|-0-0-0-0-0-0-0-0-|-0----0-0--0--0-0-0-|-0-0--0-0--0--0-0-0-|
                    E E  E E  E  E E E   E E  E E  E  E E E


  E Q.     +Q.     E   E E E E E E E E   E E E E E E E E
|---0------(0)-------|-----------------|-----------------|
|--------------------|-----------------|-----------------|
|-0----------------0-|-----------------|---------------0-|
|-----------0--------|-2---4-4-5-5-4---|-2---4-4-5-5-4---|
|-2----4----2----4-0-|-0-0-0-0-0-0-0-0-|-0-0-0-0-0-0-0-0-|
|-0-0--0-0--0--0-0---|-----------------|-----------------|
  E E  E E  E  E E E


                 |-3-|
  E Q.     +Q    E E E   E Q.     +H          E Q.     E Q   E
|---0------(0)---------|---0------(0)-------|------------------|
|----------------------|--------------------|----------0-0-----|
|-0----------------0-0-|-0------------------|---2------------2-|
|-----------0----------|-0------------------|-1----1---1---1---|
|-2----4----2----4---4-|-2----4-4--2--2-4---|-2----2---2---2-0-|
|-0----0-0--0--0-0---0-|-0-0--0-0--0--0-0-0-|-2----2-2-2-2-2-0-|
  E E  E E  E  E Q   E   E E  E E  E  E E E   E E  E E E E E E
                 |-3-|


  E     E     E     E     E     E E E
|-7-----7-----7-----7-----7-----0---0-|
|-8b8.5-8b8.5-8b8.5-8b8.5-8b8.5---2---|
|-------------------------------------|
|-------------------------------------|
|-------------------------------------|
|-------------------------------------|


       |-3-|
  +Q   E E E E E E   E   E E E E +E  Q   E
|-(0)------0---0-0---0-|-0------------------||
|--------3---2---1---0-|---0-0-0-(0)--------||
|------4-----3---2-0h1-|-1-----------2---0--||
|----------------------|-2---1----1----1----||
|----------------------|---2-2-2--2----2----||
|--0-------------------|-0------------------||
   Q   Q     Q   E a E   E E E E  Q    E E


 Verse 5
  E Q.     +Q.     E   E Q.     +Q.     E   E Q.     +Q.     E
|---0------(0)-------|---0------(0)-------|---0------(0)-------|
|--------------------|--------------------|--------------------|
|-0----------------0-|-0----------------0-|-0----------------0-|
|-----------0----0---|-----------0--------|------0----0--------|
|-2----4----2----4---|-2----4----2--2-4---|-2----4----2--2-4---|
|-0----0-0--0--0-0-0-|-0----0-0--0--0-0-0-|-0----0-0--0--0-0-0-|
  E E  E E  E  E E E   E E  E E  E  E E E   E E  E E  E  E E E


  E E Q   Q   E E   H       H         E Q.     +Q.     E
|-----------------|-----------------|---0------(0)-----0-|
|-----------------|-----------------|--------------------|
|-0-0-----------2-|-2---------------|--------------------|
|---------0-------|-2---4---5-5-4-5-|-2----4-4--5----4-2-|
|-2---4-4-2-2-4-0-|-0-0-0-0-0-0-0-0-|-0-0--0-0--0--0-0---|
|-0-0-0-0-0-0-0---|-----------------|--------------------|
  E E E E E E E E   E E E E E E E E   E E  E E  E  E E E


                 |-3-|
  E Q.     +Q    E E E   E E H.             E E E E E Q   E
|---0------(0)---------|---0--------------|-----------------|
|----------------------|------------------|-----0-0---0-----|
|-0----------------0-0-|-0---0------------|---2-----2-----2-|
|-----------0----------|----------0-------|-1---1---1---1---|
|-2----4----2----4---4-|-2---4--4-2-2-4---|-2---2---2---2-0-|
|-0-0--0-0--0--0-0---0-|-0-0-0--0-0-0-0-2-|-2---2---2---2-0-|
  E E  E E  E  E Q   E   E E E  E E E E E   Q   Q   Q   E E
                 |-3-|


  E     E     E     E     E     E E E
|-7-----7-----7-----7-----7-----0---0-|
|-8b8.5-8b8.5-8b8.5-8b8.5-8b8.5---2---|
|-------------------------------------|
|-------------------------------------|
|-------------------------------------|
|-------------------------------------|


       |-3-|                   |-3-|
  +Q   E E E E E E   E   +E  E E E E E Q.
|-(0)------0---0-0---0-|-(0)------------------||
|--------3---2---------|-----0-0---0-0-0------||
|------4-----3---2-0h1-|---------2-2---2------||
|----------------------|-------------1------0-||
|----------------------|-------2-----2----2---||
|--0-------------------|--0--2-2-----2----2---||
   Q   Q     Q   E a E    E  E Q     Q    E E


 Verse 6
  E E E E E E E E   E Q.     +H          E E E E E E E E
|-----------------|---0------(0)-------|-----------------|
|-----------------|--------------------|-----------------|
|-0-------------0-|-0------------------|---0-0-0-0-------|
|---------0---0---|--------------------|-0-------0-------|
|-2---4---2-2-4---|-2----4----2--2-4-4-|-2-2-4---2---4-4-|
|-0-0-0-0-0-0-0-0-|-0-0--0-0--0--0-0-0-|-0-0-0-0-0-0-0-0-|
                    E E  E E  E  E E E


  E E E E E E E E   H       Q   E E   H       Q   E E
|-----------------|-0---------------|-0---------------|
|-0---------------|-----------------|-----------------|
|-0-0-----------0-|---------------0-|---------------0-|
|-----------------|-2---4-4-5-5-4---|-2---4-4-5-5-4---|
|-2---4-4-2-2-4-0-|-0-0-0-0-0-0-0-0-|-0-0-0-0-0-0-0---|
|-0-0-0-0-0-0-0---|-----------------|---------------0-|
                    E E E E E E E E   E E E E E E E E


                 |-3-|
  E Q.     +Q    E E E   E Q.     +H
|---0------(0)---------|---0------(0)-------|
|----------------------|--------------------|
|-0----------------0-0-|-0------------------|
|-0---------0----------|-----------0--------|
|-2----4----2----4---4-|-2----4-4--2----4-0-|
|-0-0--0-0--0--0-0---0-|-0----0-0--0--0-0---|
  E E  E E  E  E Q   E   E E  E E  E  E E E
                 |-3-|


                                                         2/4
  E E E E E Q   E   E     E     E     E     E     E E E   Q  E  E
|-----------------|-7-----7-----7-----7-----7-----0---0-|------12-|
|-----0---0-0---0-|-8b8.5-8b8.5-8b8.5-8b8.5-8b8.5---2---|---------|
|---2---2---------|-------------------------------------|----9----|
|-1---1---1-1-1---|-------------------------------------|----9----|
|-2---2---2-2-2---|-------------------------------------|---------|
|-2---2---2-2-2---|-------------------------------------|---------|
  Q   Q   E E E E


 4/4
                 |--3---|
   E   E  E  E   E   E  E  E  E    Q    E  E  H
|-12--12-12-12-(12)-12-12-12-12-|-12------10-10----*|
|-12-----12---------------------|-------------9----*|
|----------------9--------------|-------------9----*|
|-12--------11-(11)-------10-10-|--9----9----------*|
|-------------------------------|----10------------*|
|-------------------------------|------------------*|
   Q.        E  +Q         E  E    E  E E  E  H
Comments