Robert Johnson - Come On In My Kitchen Chords & Tabs

 

Come On In My Kitchen Chords & Tabs

Robert Johnson Chords & Tabs

Version: 1 Type: Tab 0 ratings
1 star 2 stars 3 stars 4 stars 5 stars
comments

Come On In My Kitchen Tab

   
Tuning-E,A,E,A,C#,E

INTRO:

e -|-/12--/12-/12------------12--------|-
C#-|------/12-/12------10/12----12-----|-
A -|----------/12------------------/12-|-
E -|---------------0-0-----------------|-
A -|---------------0-0-----------------|-
E -|-----------------------------------|-

e -|------------------------------|-
C#-|------------------------------|-
A -|------------------------------|-
E -|-----0--2-2--1-1--0--0-0--0-0-|-
A -|-0-3-----------------7-7--7-7-|-
E -|--------2-2--1-1--0-----------|-


FIRST VERSE:
e -|-------/12/12-----------/12/12-/12---------|-
C#-|-------/12/12-----------/12/12-/12-12------|-
A -|-----------------------------------12------|-
E -|-0--0---0--0-----0-0-----0--0---0------0-0-|-
A -|-0--0---0--0-----0-0-----0--0---0------0-0-|-
E -|-------------------------------------------|-

A    Mm mm  mm mm            mm mm  mm mm
[ Tab from: http://www.guitartabs.cc/tabs/r/robert_johnson/come_on_in_my_kitchen_tab.html ]
e -|-/12/12-/12/12-----------/12/12-/12---------|-
C#-|-/12/12-/12/12-----------/12/12-/12-12------|-
A -|------------------------------------12------|-
E -|--0--0---0--0-----0-0-----0--0---0------0-0-|-
A -|--0--0---0--0-----0-0-----0--0---0------0-0-|-
E -|--------------------------------------------|-

A    Mm mm  mm mm            mm mm  mm mm

e -|-/12/12------------------|-------------------------|-
C#-|-/12/12------------------|-------------------------|-
A -|-------------------------|-----------------12\7----|-
E -|--0--0-------------------|--0-0--------------------|-
A -|--0--0-------------------|--0-0--------------------|-
E -|-------------------------|-------------------------|-

A    You better come on        in my kitchen babe, 

e -|---/12/12--\10--------------0--/5--5--------------|-
C#-|---/12/12--\10--10--10/12-------------------------|-
A -|----------------10--10/12-------------------------|-
E -|--------------------------------------------------|-
A -|--------------------------------------------------|-
E -|--------------------------------------------------|-

A   it's goin' to be rainin' outdoors

e -|---------------------------|--3/5-5\3----------------|-
C#-|---------------------------|-------------------------|-
A -|---------------------------|-----------3/5-5\3-------|-
E -|--5--5\3--0----------------|-------------------------|-
A -|-------------3\5-3-0-----0-|-------------------------|-
E -|---------------------3-----|-------------------------|-
Comments