Robert Cray - Smoking Gun Chords & Tabs

 

Smoking Gun Chords & Tabs

Robert Cray Chords & Tabs

Version: 2 Type: Tab 0 ratings
1 star 2 stars 3 stars 4 stars 5 stars
comments

Smoking Gun Tab

   
SMOKING GUN
As recorded by Robert Cray
(From the 1986 Album STRONG PERSUADER)


Transcribed by Paul Bell

 Words and Music by Robert Cray, Richard Cousins & D. Amy

 

Gtr I (E A D G B E) 
Gtr II (E A D G B E) 
Gtr III (E A D G B E) 


 Intro
  4/4
  Gtr I
  Q  E E E E E E   +E  Q  E +E  E E E   Q  E E E E E E   +E  Q  E +E  E E E
|----0-----0---2-|-(2)-0--0-(0)-0---0-|----0-----0---2-|-(2)-0--0-(0)-0---0-|
|----0-0-3-3p0-0-|-(0)-0--3-(3)-0-2-0-|----0-0-3-3p0-0-|-(0)-0--3-(3)-0-2-0-|
|----0---0-0---0-|-(0)-0--0-(0)-0-2-0-|----0---0-0---0-|-(0)-0--0-(0)-0-2-0-|
|----------------|--------------------|----------------|--------------------|
|----------------|--------------------|----------------|--------------------|
|-0--------------|--------------------|-0--------------|--------------------|


  Q  E E E E E E   +E  Q  E +E  E E E   Q  E E E E E E   +E  Q  E +E  E E E
|----0-----0---2-|-(2)-0--0-(0)-0---0-|----0-----0---2-|-(2)-0--0-(0)-0---0-||
|----0-0-3-3p0-0-|-(0)-0--3-(3)-0-2-0-|----0-0-3-3p0-0-|-(0)-0--3-(3)-0-2-0-||
|----0---0-0---0-|-(0)-0--0-(0)-0-2-0-|----0---0-0---0-|-(0)-0--0-(0)-0-2-0-||
|----------------|--------------------|----------------|--------------------||
|----------------|--------------------|----------------|--------------------||
|-0--------------|--------------------|-0--------------|--------------------||


   Verses
    Q  E E E E E E   +E  Q  E +E  E E E   Q  E E E E E E   +E  Q  E +E  E E E
||-----0-----0---2-|-(2)-0--0-(0)-0---0-|----0-----0---2-|-(2)-0--0-(0)-0---0--|
||o----0-0-3-3p0-0-|-(0)-0--3-(3)-0-2-0-|----0-0-3-3p0-0-|-(0)-0--3-(3)-0-2-0--|
||-----0---0-0---0-|-(0)-0--0-(0)-0-2-0-|----0---0-0---0-|-(0)-0--0-(0)-0-2-0--|
||-----------------|--------------------|----------------|---------------------|
||o----------------|--------------------|----------------|---------------------|
||--0--------------|--------------------|-0--------------|---------------------|


  Q  E E E E E E   +E  Q  E +E  E E E   Q  E E E E E E   +E  Q  E +E  E E E
|----0-----0---2-|-(2)-0--0-(0)-0---0-|----0-----0---2-|-(2)-0--0-(0)-0---0-|
|----0-0-3-3p0-0-|-(0)-0--3-(3)-0-2-0-|----0-0-3-3p0-0-|-(0)-0--3-(3)-0-2-0-|
|----0---0-0---0-|-(0)-0--0-(0)-0-2-0-|----0---0-0---0-|-(0)-0--0-(0)-0-2-0-|
|----------------|--------------------|----------------|--------------------|
|----------------|--------------------|----------------|--------------------|
|-0--------------|--------------------|-0--------------|--------------------|


  Gtr II
  Q  E E Q   E E    W                   Q  E E Q   E E    W
|----------------|--------------------|----------------|------------------|
|----------------|--------------------|----------------|------------------|
|----------------|--------------------|----------------|------------------|
|----------------|--------------------|----------------|------------------|
|-0----3-3---0-0-|--------------------|----------------|------------------|
|----------------|--------------------|-0----3-3---0-0-|------------------|
|
| Gtr I
| Q  E E E E E E   +E  Q  E +E  E E E   Q  E E E E E E   +E  Q  E E E E E
|----0-----0---2-|-(2)-0--------0-----|----0-----0---2-|-(2)-0--0---0---0-|
|-1--1---3-1---1-|-(1)-1--3-(3)-0-2-0-|----0-0-3-3p0-0-|-(0)-0--3p0-0-2-0-|
|-2----0-2-2-2---|--------2-(2)-0-2-0-|----0---0-0---0-|-(0)-0--0---0-2-0-|
|-2--------------|--------------------|----------------|------------------|
|-0--------------|--------------------|----------------|------------------|
|----------------|--------------------|-0--------------|------------------|


  Q  E E Q   E E    W                 W
|----------------|------------------|------------------|
|----------------|------------------|------------------|
|----------------|------------------|------------------|
|----------------|------------------|------------------|
|-0----3-3---0-0-|------------------|------------------|
|----------------|------------------|------------------|
|
| Q  E E E E E E   +E  Q  E E E E E   Q    E E E E E E
|----0-----0---2-|-(2)-0------------|------------------|
|-1--1---3-1---1-|-(1)-1--3---------|----------------0-|
|-2----0-2-2-2---|--------2-----0-2-|-2b3--2-0-2-0---0-|
|-2--------------|------------2-----|--------------2-2-|
|-0--------------|------------------|------------------|
|----------------|------------------|------------------|


  1.
  Gtr I
  +Q   E E E E E E   +E  Q  E +E  E E E
|------0-----0---2-|-(2)-0--0-(0)-0---0-|
|-(0)--0-0-3-3p0-0-|-(0)-0--3-(3)-0-2-0-|
|-(0)--0---0-0---0-|-(0)-0--0-(0)-0-2-0-|
|-(2)--------------|--------------------|
|------------------|--------------------|
|------------------|--------------------|


  Q  E E E E E E   +E  Q  E +E  E E E
|----0-----0---2-|-(2)-0--0-(0)-0---0--||
|----0-0-3-3p0-0-|-(0)-0--3-(3)-0-2-0-o||
|----0---0-0---0-|-(0)-0--0-(0)-0-2-0--||
|----------------|---------------------||
|----------------|--------------------o||
|-0--------------|---------------------||


  2.
  Gtr III
   E   E E  E E  E E E    E  E E E  H
|----------------------|---------------------|
|--0---0----0----0-----|---------------------|
|----------------------|---------------------|
|-/4--/4---/4---/4---4s|==2--0---------------|
|----------------------|-------2p0-----------|
|----------------------|---------------------|
|
| Gtr I
|  Q     E  E E  E E E   +E  Q   E +E  E E E
|--------0-------0---2-|-(2)-0---0-(0)-0---0-|
|-(0)----0--0-3--3p0-0-|-(0)-0---3-(3)-0-2-0-|
|-(0)----0----0--0---0-|-(0)-0---0-(0)-0-2-0-|
|-(2)------------------|---------------------|
|----------------------|---------------------|
|----------------------|---------------------|


  A E E q   Q   A S S E    Q    Q    E  E E E
|-----------------------|----------------------||
|-----------------------|----------------------||
|-4s2p0-----------------|----------------------||
|-------2-------0h2p0h2-|-----------------0-2--||
|-----------------------|------------0--2------||
|-----------------------|--0-------------------||
|
|   Q   E E E E   E   E   +E  Q   E +E  E E E
|-------0-----0-------2-|-(2)-0---0-(0)-0---0--||
|-------0-0-3-3p==0---0-|-(0)-0---3-(3)-0-2-0--||
|-------0---0-0-------0-|-(0)-0---0-(0)-0-2-0--||
|-----------------------|----------------------||
|-----------------------|----------------------||
|---0-------------------|----------------------||


 Guitar Solo
                            ~~
  +Q    E E E E E E    E  E H.
|-------------------|-----3----------------|
|---------3-5p3-5p3-|--5----5--------------|
|------/4-----------|----------------------|
|-(2)---------------|----------------------|
|-------------------|----------------------|
|-------------------|----------------------|
|
|  Q    E E E E E E   +E  Q    E +E  E E E
|-------0-----0---2-|-(2)-0----0-(0)-0---0-|
|-------0-0-3-3p0-0-|-(0)-0----3-(3)-0-2-0-|
|-------0---0-0---0-|-(0)-0----0-(0)-0-2-0-|
|-------------------|----------------------|
|-------------------|----------------------|
|--0----------------|----------------------|


  E E   E   E H          E  E E E  H
|---3b4-3b4-----------|---------------------|
|---------------------|---------------------|
|---------------------|---------------------|
|---------------------|-----2-2p0-----------|
|---------------------|---------------------|
|---------------------|---------------------|
|
| Q     E   E E E E E   +E  Q   E +E  E E E
|-------0-------0---2-|-(2)-0---0-(0)-0---0-|
|-------0---0-3-3p0-0-|-(0)-0---3-(3)-0-2-0-|
|-------0-----0-0---0-|-(0)-0---0-(0)-0-2-0-|
|---------------------|---------------------|
|---------------------|---------------------|
|-0-------------------|---------------------|


                             ~~~~~~~~
  Q   E E E E Q      q       Q   +Q.     E
|-----------------|--3b3.5---3---(3)-----0-|
|-------3-5p3-5---|------------------------|
|----/4-----------|------------------------|
|-----------------|------------------------|
|-----------------|------------------------|
|-----------------|------------------------|
|
| Q   E E E E E E   +E     Q   E +E  E E E
|-----0-----0---2-|-(2)----0---0-(0)-0---0-|
|-----0-0-3-3p0-0-|-(0)----0---3-(3)-0-2-0-|
|-----0---0-0---0-|-(0)----0---0-(0)-0-2-0-|
|-----------------|------------------------|
|-----------------|------------------------|
|-0---------------|------------------------|


  A E S S Q   H         A  E  E E E  Q    A E E
|---------------------|-------------------------|
|---------------------|-------------------------|
|-4s2-0---------------|-4s=2p=0-----------2s4-0-|
|-------2-2-----------|---------2-0-------------|
|---------------------|-------------------------|
|---------------------|-------------------------|
|
|   Q     E E E E E E     +E  Q   E +E  E   E E
|---------0-----0---2-|---(2)-0---0-(0)-0-----0-|
|---------0-0-3-3p0-0-|---(0)-0---3-(3)-0---2-0-|
|---------0---0-0---0-|---(0)-0---0-(0)-0---2-0-|
|---------------------|-------------------------|
|---------------------|-------------------------|
|---0-----------------|-------------------------|


  Q  E E A E A E E E    E  S S E S S  q    E E
|--------------------|-----3-----3-------------|
|----------------3-5-|-------5-----5-----------|
|-2----------2s4-----|---------4------4------4-|
|------2-0h2---------|-------------------------|
|--------------------|-------------------------|
|--------------------|-------------------------|
|
| Gtr II
| Q  E E   Q     E E    W
|--------------------|-------------------------|
|--------------------|-------------------------|
|--------------------|-------------------------|
|--------------------|-------------------------|
|-0----3---3-----0-0-|-------------------------|
|--------------------|-------------------------|
|
| Gtr I
| Q  E E   E   E E E   +E  Q     E   +E  E E E
|----0---------0---2-|-(2)-0-------------0-----|
|-1--1-----3---1---1-|-(1)-1-----3---(3)-0-2-0-|
|-2----0---2---2-2---|-----------2---(2)-0-2-0-|
|-2------------------|-------------------------|
|-0------------------|-------------------------|
|--------------------|-------------------------|


    ~                         ~
  E Q   E     E Q     E    E  Q  E E E    +Q
|-------3b3.5---5b7---3-|--5-------3-5b7==(5)r---|
|-3-5-------------------|-----5--5---------------|
|-----------------------|------------------------|
|-----------------------|------------------------|
|-----------------------|------------------------|
|-----------------------|------------------------|
|
| Q   E E     Q     E E    W
|-----------------------|------------------------|
|-----------------------|------------------------|
|-----------------------|------------------------|
|-----------------------|------------------------|
|-----------------------|------------------------|
|-0-----3-----3-----0-0-|------------------------|
|
| Q   E E     E E   E E   +E  Q  E E E     E   E
|-----0---------0-----2-|-(2)-0--0---0---------0-|
|-----0-0-----3-3p==0-0-|-(0)-0--3p0-0-----2---0-|
|-----0-------0-0-----0-|-(0)-0--0---0-----2---0-|
|-----------------------|------------------------|
|-----------------------|------------------------|
|-0---------------------|------------------------|


           ~                                 ~~~
  Q    E E E E E E   +E     E  E E H         Q    A E E E E E E
|-5b7--3-5-----3-5-|-(5)b7==5r-3-5---------|--------------------|
|----------5-5-----|-----------------------|-5------------------|
|------------------|-----------------------|------4s2-0---------|
|------------------|-----------------------|------------2p0-2-2-|
|------------------|-----------------------|--------------------|
|------------------|-----------------------|--------------------|
|
| Q    E E Q   E E    W                      W
|------------------|-----------------------|--------------------|
|------------------|-----------------------|--------------------|
|------------------|-----------------------|--------------------|
|------------------|-----------------------|--------------------|
|-0------3-3---0-0-|-----------------------|--------------------|
|------------------|-----------------------|--------------------|
|
| Q    E E E E E E   +E     Q    E E E E E   Q      E E E E E E
|------0-----0---2-|-(2)----0--------------|--------------------|
|-1----1---3-1---1-|-(1)----1----3---------|------------------0-|
|-2------0-2-2-2---|-------------2-----0-2-|-2b3----2-0-2-0---0-|
|-2----------------|-----------------2-----|----------------2-2-|
|-0----------------|-----------------------|--------------------|
|------------------|-----------------------|--------------------|


  Gtr III
   W                  E  E E E +H
|------------------|-----0-2-------------|
|------------------|--0------3-(3)-------|
|------------------|---------------------|
|------------------|---------------------|
|------------------|---------------------|
|--0---------------|---------------------|
|
| Gtr I
| +Q   E E E E E E   +E  Q   E +E  E E E
|------0-----0---2-|-(2)-0---0-(0)-0---0-|
|-(0)--0-0-3-3p0-0-|-(0)-0---3-(3)-0-2-0-|
|-(0)--0---0-0---0-|-(0)-0---0-(0)-0-2-0-|
|-(2)--------------|---------------------|
|------------------|---------------------|
|------------------|---------------------|


  H      E E E E   +E  Q  S S  E  E Q
|--------------2-|-(2)----2h3p=2--0-----||
|--------------0-|-(0)-3----------------||
|--------0-------|----------------------||
|----------2-2---|----------------------||
|----------------|----------------------||
|----------------|----------------------||
|
| Q  E E E E E E   +E  Q  E   +E  E E E
|----0-----0---2-|-(2)-0--0---(0)-0---0-||
|----0-0-3-3p0-0-|-(0)-0--3---(3)-0-2-0-||
|----0---0-0---0-|-(0)-0--0---(0)-0-2-0-||
|----------------|----------------------||
|----------------|----------------------||
|-0--------------|----------------------||


    E  E  E  E  E  E  E  E    E   E      Q    Q     A  Q
|-/12-12-12-12-12-12-12-12-|-12-----------------------12---|
|-/12-12-12-12-12-12-12-12-|-12-----------------------12---|
|--------------------------|-----12b12.5-----------12h14---|
|--------------------------|-------------------------------|
|--------------------------|-------------------------------|
|--------------------------|-------------------------------|
|
|   Q     E  E  E  E  E  E   +E   Q        E +E  E     E E
|---------0--------0-----2-|-(2)--0--------0-(0)-0-------0-|
|---------0--0--3--3p=0--0-|-(0)--0--------3-(3)-0-----2-0-|
|---------0-----0--0-----0-|-(0)--0--------0-(0)-0-----2-0-|
|--------------------------|-------------------------------|
|--------------------------|-------------------------------|
|---0----------------------|-------------------------------|


   Q     Q    E     E  E  E       E   Q      E  Q     q
|------------------12-12-------|-12---------12------------|
|-12b13------15b17-------15b17-|-----15b17-----------12---|
|-12b13------------------------|--------------------------|
|------------------------------|--------------------------|
|------------------------------|--------------------------|
|------------------------------|--------------------------|
|
|  Q     E E  E     E  E  E      +E   Q      E +E  E  E E
|--------0----------0-----2----|-(2)--0------0-(0)-0----0-|
|--------0-0--3-----3p=0--0----|-(0)--0------3-(3)-0--2-0-|
|--------0----0-----0-----0----|-(0)--0------0-(0)-0--2-0-|
|------------------------------|--------------------------|
|------------------------------|--------------------------|
|--0---------------------------|--------------------------|


                               ~~~~~~~~~~~~~~      ~~~~~~~~~~~~      ~~~~~~~
   Q.        +E    E  E     E  E        +Q      E  E      +Q      E  E
|-----------------12-------12--------|---------12----------------12--------|
|-15b17=====(15)r----15b17----15b17==|=(15)r------15b17==(15)r------15b17==|
|------------------------------------|-------------------------------------|
|------------------------------------|-------------------------------------|
|------------------------------------|-------------------------------------|
|------------------------------------|-------------------------------------|
|
|  Q      E   E    E  E     E  E        +E   Q     E      +E   E  E  E
|---------0-----------0--------2-----|--(2)--0-----0------(0)--0-----0-----|
|---------0---0----3--3p====0--0-----|--(0)--0-----3------(3)--0--2--0-----|
|---------0--------0--0--------0-----|--(0)--0-----0------(0)--0--2--0-----|
|------------------------------------|-------------------------------------|
|------------------------------------|-------------------------------------|
|--0---------------------------------|-------------------------------------|


 ~~~~~~~                                                        ~~
   +E   +E   E  S  S    Q   E  S  S    E   Q       +E    E   E  Q
|-----------------------------12----|-15--17b19===(17)r-15--17--------|
|-(15)r(15)-12-------------------15-|--------------------------17-----|
|--------------14p12b13-------------|---------------------------------|
|-----------------------------------|---------------------------------|
|-----------------------------------|---------------------------------|
|-----------------------------------|---------------------------------|
|
|   Q        E  E       E E E  E      +E   Q        E   +E   E  E E
|------------0------------0----2----|-(2)--0--------0---(0)--0----0---|
|------------0--0-------3-3p0--0----|-(0)--0--------3---(3)--0--2-0---|
|------------0----------0-0----0----|-(0)--0--------0---(0)--0--2-0---|
|-----------------------------------|---------------------------------|
|-----------------------------------|---------------------------------|
|---0-------------------------------|---------------------------------|


   Q        A  E  E  E  E  A  E  E    A  E   E  A  E  E   E  E  E  E
|-15b15.5--------15-15-15-------15-|--------15-------15-------------------|
|----------15s17----15----15s17----|-15s17-----15s17----------------------|
|----------------------------------|--------------------\12--x----12b12.5-|
|----------------------------------|---------------------------14---------|
|----------------------------------|--------------------------------------|
|----------------------------------|--------------------------------------|
|
| Gtr II
|  Q           E  E  Q        E  E       W
|----------------------------------|--------------------------------------|
|----------------------------------|--------------------------------------|
|----------------------------------|--------------------------------------|
|----------------------------------|--------------------------------------|
|--0--------------3--3--------0--0-|--------------------------------------|
|----------------------------------|--------------------------------------|
|
| Gtr I
|  Q           E  E  E  E     E  E      +E   Q        E  +E  E  E  E
|--------------0--------0--------2-|----(2)--0---------------0------------|
|--1-----------1-----3--1--------1-|----(1)--1--------3--(3)-0--2--0------|
|--2--------------0--2--2-----2----|------------------2--(2)-0--2--0------|
|--2-------------------------------|--------------------------------------|
|--0-------------------------------|--------------------------------------|
|----------------------------------|--------------------------------------|


                                          ~~~
   E     E  Q       E.      S  E  S  S    E   E  Q   E  Q       +E
|--------------------------------------|----------------------------|
|-------12-15b17---15b17---12----------|-----(0)-------15b17r==(15)-|
|-14b16-----------------------14-12----|----------------------------|
|-----------------------------------14-|-14-------------------------|
|--------------------------------------|----------------------------|
|--------------------------------------|----------------------------|
|
|  Q        E    E  Q          E  E       W
|--------------------------------------|----------------------------|
|--------------------------------------|----------------------------|
|--------------------------------------|----------------------------|
|--------------------------------------|----------------------------|
|--------------------------------------|----------------------------|
|--0-------------3--3----------0--0----|----------------------------|
|
|  Q        E    E  E    E     E  E      +E   Q    E E  E    E   E
|-----------0------------0--------2----|-(2)--0----0----0--------0--|
|-----------0----0--3----3p====0--0----|-(0)--0----3p0--0----2---0--|
|-----------0-------0----0--------0----|-(0)--0----0----0----2---0--|
|--------------------------------------|----------------------------|
|--------------------------------------|----------------------------|
|--0-----------------------------------|----------------------------|

[ Tab from: http://www.guitartabs.cc/tabs/r/robert_cray/smoking_gun_tab_ver_2.html ]
   E  E     E  E  E     E  E  E
|-12-------12-12-------12-12----|
|----15b17-------15b17-------15-|
|-------------------------------|
|-------------------------------|
|-------------------------------|
|-------------------------------|
|
|  Q        E  E  Q        E  E
|-------------------------------|
|-------------------------------|
|-------------------------------|
|-------------------------------|
|--0-----------3--3--------0--0-|
|-------------------------------|
|
|  Q        E  E  E     E  E  E
|-----------0-----------0-----2-|
|--1--------1-----3-----1-----1-|
|--2-----------0--2-----2--2----|
|--2----------------------------|
|--0----------------------------|
|-------------------------------|


                                                                 ~~
   +E  E  E   S    S   E     E       Q      A  Q     E  E  E  E  Q
|----------------------------------------|----------------------------|
|-(15)---12------------------------------|----------------------------|
|-----------(12)------14b16-12b12.5------|-14s15----14-12-14p12-------|
|----------------(12)---------------14---|----------------------14----|
|----------------------------------------|----------------------------|
|----------------------------------------|----------------------------|
|
|   W                                          W
|----------------------------------------|----------------------------|
|----------------------------------------|----------------------------|
|----------------------------------------|----------------------------|
|----------------------------------------|----------------------------|
|----------------------------------------|----------------------------|
|----------------------------------------|----------------------------|
|
|  +E  Q      E        E     E       E E       Q     E  E  E  E  E E
|--(2)-0---------------------------------|----------------------------|
|--(1)-1------3--------------------------|-------------------------0--|
|-------------2----------------------0-2-|-----2b3---2--0--2--0----0--|
|----------------------------2-----------|-----------------------2-2--|
|----------------------------------------|----------------------------|
|----------------------------------------|----------------------------|


  Gtr III
                                                 ~~~~~~~
   E       S  S  E E H         A  E  E E E +E  E S S E
|----------------------------|-----------3-(3)---------|
|----------------------------|-------3-2-3-(3)-3-5-5-5-|
|-12b12.5--------------------|-2s=4--------------------|
|---------14p12h14-----------|-------------------------|
|----------------------------|-------------------------|
|----------------------------|-------------------------|
|
| Gtr I
| +Q             E E E E E E     +E  Q   E +E  E E   E
|----------------0-----0---2-|---(2)-0---0-(0)-0-----0-|
|-(0)------------0-0-3-3p0-0-|---(0)-0---3-(3)-0-2---0-|
|-(0)------------0---0-0---0-|---(0)-0---0-(0)-0-2---0-|
|-(2)------------------------|-------------------------|
|----------------------------|-------------------------|
|----------------------------|-------------------------|


 ~~~~~                ~
  +E  E   Q   A E S S Q      E  S S Q    E  A E Q
|-----3b4-----------------|------------------------------||
|-(5)---------------------|------------------------------||
|-------------4s3-0-------|--0---------------------------||
|-------------------2-2---|-----2p0-------------0tr2-----||
|-------------------------|-----------------0h2----------||
|-------------------------|------------------------------||
|
|  Q      E E   E E   E E   +E  Q     E +E    E E    E
|---------0-------0-----2-|-(2)-0-----0-(0)---0------0---||
|---------0-0---3-3p==0-0-|-(0)-0-----3-(3)---0-2----0---||
|---------0-----0-0-----0-|-(0)-0-----0-(0)---0-2----0---||
|-------------------------|------------------------------||
|-------------------------|------------------------------||
|--0----------------------|------------------------------||


 Verse 3
                                                       Gtr II
  W                 W                   W                 Q    A E E  E  E E E
|----------------|--------------------|----------------|-----------------------|
|----------------|--------------------|----------------|-----------------------|
|----------------|--------------------|----------------|-------2s4-0--2--0-----|
|----------------|--------------------|----------------|-------------------2p0-|
|----------------|--------------------|----------------|-----------------------|
|----------------|--------------------|----------------|-----------------------|
|
| Gtr I
| Q  E E E E E E   +E  Q  E +E  E E E   Q  E E E E E E   +E  Q     E +E  E E E
|----0-----0---2-|-(2)-0--0-(0)-0---0-|----0-----0---2-|-(2)-0-----0-(0)-0---0-|
|----0-0-3-3p0-0-|-(0)-0--3-(3)-0-2-0-|----0-0-3-3p0-0-|-(0)-0-----3-(3)-0-2-0-|
|----0---0-0---0-|-(0)-0--0-(0)-0-2-0-|----0---0-0---0-|-(0)-0-----0-(0)-0-2-0-|
|----------------|--------------------|----------------|-----------------------|
|----------------|--------------------|----------------|-----------------------|
|-0--------------|--------------------|-0--------------|-----------------------|


                                                               ~~~~~~~~
  W                 W                   W                 E  E Q   +E  E A E E
|----------------|--------------------|----------------|-------3---(3)---------|
|----------------|--------------------|----------------|---------------5-------|
|----------------|--------------------|----------------|-----4-----------4s2p0-|
|----------------|--------------------|----------------|-----------------------|
|----------------|--------------------|----------------|-----------------------|
|----------------|--------------------|----------------|-----------------------|
|
| Q  E E E E E E   +E  Q  E +E  E E E   Q  E E E E E E   +E  Q   E +E  E   E E
|----0-----0---2-|-(2)-0--0-(0)-0---0-|----0-----0---2-|-(2)-0---0-(0)-0-----0-|
|----0-0-3-3p0-0-|-(0)-0--3-(3)-0-2-0-|----0-0-3-3p0-0-|-(0)-0---3-(3)-0---2-0-|
|----0---0-0---0-|-(0)-0--0-(0)-0-2-0-|----0---0-0---0-|-(0)-0---0-(0)-0---2-0-|
|----------------|--------------------|----------------|-----------------------|
|----------------|--------------------|----------------|-----------------------|
|-0--------------|--------------------|-0--------------|-----------------------|


  Q  E E Q   E E    W
|----------------|--------------------|
|----------------|--------------------|
|----------------|--------------------|
|----------------|--------------------|
|-0----3-3---0-0-|--------------------|
|----------------|--------------------|
|
| Gtr I
| Q  E E E E E E   +E  Q  E +E  E E E
|----0-----0---2-|-(2)-0--------0-----|
|-1--1---3-1---1-|-(1)-1--3-(3)-0-2-0-|
|-2----0-2-2-2---|--------2-(2)-0-2-0-|
|-2--------------|--------------------|
|-0--------------|--------------------|
|----------------|--------------------|


  Q  E E Q   E E    E  A E A E A E A E A E A E E
|----------------|-------------------------------|
|----------------|-------------------------------|
|----------------|-------0---0---0---0---0-2s4---|
|----------------|-----0h2-0h2-0h2-0h2-0h2-----0-|
|----------------|-------------------------------|
|-0----3-3---0-0-|-------------------------------|
|
| Q  E E E E E E   +E    Q       E   E   E   E E
|----0-----0---2-|-(2)---0-------0-------0-----0-|
|----0-0-3-3p0-0-|-(0)---0-------3p==0---0---2-0-|
|----0---0-0---0-|-(0)---0-------0-------0---2-0-|
|----------------|-------------------------------|
|----------------|-------------------------------|
|-0--------------|-------------------------------|


  Q  E E Q   E E    W                   W
|----------------|-------------------|--------------------|
|----------------|-------------------|--------------------|
|----------------|-------------------|--------------------|
|----------------|-------------------|--------------------|
|-0----3-3---0-0-|-------------------|--------------------|
|----------------|-------------------|--------------------|
|
| Q  E E E E E E   +E  Q  E  E E E E    Q    E E E E E E
|----0-----0---2-|-(2)-0-------------|--------------------|
|-1--1---3-1---1-|-(1)-1--3----------|-----------------0--|
|-2----0-2-2-2---|--------2------0-2-|--2b3--2-0-2-0---0--|
|-2--------------|-------------2-----|---------------2-2--|
|-0--------------|-------------------|--------------------|
|----------------|-------------------|--------------------|


  Gtr III
   Q   A Q   E E Q     A  E  E E E  E  E Q
|--------------------|-----------------------|
|--------0-----------|-----------------------|
|------2s4---2-0-----|-------0------0--------|
|----------------2---|-0h=2----2p0-----2-----|
|--------------------|-----------------------|
|--------------------|-----------------------|
|
| Gtr I
| +Q     E E E E E E     +E  Q   E +E  E E E
|--------0-----0---2-|---(2)-0---0-(0)-0---0-|
|-(0)----0-0-3-3p0-0-|---(0)-0---3-(3)-0-2-0-|
|-(0)----0---0-0---0-|---(0)-0---0-(0)-0-2-0-|
|-(2)----------------|-----------------------|
|--------------------|-----------------------|
|--------------------|-----------------------|


  Q  A E E E E Q      E  E Q    H
|------------------|----------------------||
|------------------|----------------------||
|----2s4-0-2-0-----|----------------------||
|--------------2---|--2p=0----------------||
|------------------|----------------------||
|------------------|----------------------||
|
| Q    E E E E E E   +E  Q   E +E  E E E
|------0-----0---2-|-(2)-0---0-(0)-0---0--||
|------0-0-3-3p0-0-|-(0)-0---3-(3)-0-2-0--||
|------0---0-0---0-|-(0)-0---0-(0)-0-2-0--||
|------------------|----------------------||
|------------------|----------------------||
|-0----------------|----------------------||


 Outro
  Q  A E E E E Q     A  S  E   S q    E.   S Q
|------------------|-----------------------------|
|------------------|-----------------------------|
|----2s4-0-2-0-----|-2s=3s=2p==0-----------------|
|--------------2---|-------------2----2p===0-----|
|------------------|-----------------------------|
|------------------|-----------------------------|
|
| Q    E E E E E E     +E    Q     E +E  E   E E
|------0-----0---2-|---(2)---0-----0-(0)-0-----0-|
|------0-0-3-3p0-0-|---(0)---0-----3-(3)-0---2-0-|
|------0---0-0---0-|---(0)---0-----0-(0)-0---2-0-|
|------------------|-----------------------------|
|------------------|-----------------------------|
|-0----------------|-----------------------------|


  H      A E E A E E   A  E  E E E  E  E Q
|--------------------|------------------------|
|------------3-------|------------------------|
|--------2s4---4s2-0-|-3s=2p=0-2-0--2--0------|
|--------------------|-------------------2----|
|--------------------|------------------------|
|--------------------|------------------------|
|
| Q  E E   E E   E E     +E  Q   E +E  E E E
|----0-------0-----2-|---(2)-0---0-(0)-0---0--|
|----0-0---3-3p==0-0-|---(0)-0---3-(3)-0-2-0--|
|----0-----0-0-----0-|---(0)-0---0-(0)-0-2-0--|
|--------------------|------------------------|
|--------------------|------------------------|
|-0------------------|------------------------|


  Q  Q       E     E  E  E   +E  E E E +E  E E E
|----3b3.5---3b3.5-------2-|-(2)-----------------|
|------------3-----5p(0)---|-----0---------------|
|--------------------------|-----0---------0h2-0-|
|--------------------------|-------2-0-(0)-------|
|--------------------------|---------------------|
|--------------------------|---------------------|
|
| Q  E     E E     E  E  E   +E  Q   E +E  E E E
|----0-------------0-----2-|-(2)-0---0-(0)-0---0-|
|----0-----0-3-----3p=0--0-|-(0)-0---3-(3)-0-2-0-|
|----0-------0-----0-----0-|-(0)-0---0-(0)-0-2-0-|
|--------------------------|---------------------|
|--------------------------|---------------------|
|-0------------------------|---------------------|


  Q  Q       E     E Q       H        E  E E E
|----3b3.5---3b3.5--------|--------------------|
|------------------5------|--------------------|
|--------------------4\---|-----------2p=0-----|
|-------------------------|----------------2p0-|
|-------------------------|--------------------|
|-------------------------|--------------------|
|
| Q  E     E E     E E  E   +E  Q  E +E  E E E
|----0-------------0----2-|-(2)-0--0-(0)-0---0-|
|----0-----0-3-----3p0--0-|-(0)-0--3-(3)-0-2-0-|
|----0-------0-----0----0-|-(0)-0--0-(0)-0-2-0-|
|-------------------------|--------------------|
|-------------------------|--------------------|
|-0-----------------------|--------------------|


  Q  q   E E Q      H        E     E     Q
|----3---3-------|-----------3b3.5-3b3.5-3b3.5---|
|----------5-----|-------------------------------|
|------------4---|-------------------------------|
|----------------|-------------------------------|
|----------------|-------------------------------|
|----------------|-------------------------------|
|
| Q  E E E E E E   +E  Q  E +E     E     E     E
|----0-----0---2-|-(2)-0--0-(0)----0-----------0-|
|----0-0-3-3p0-0-|-(0)-0--3-(3)----0-----2-----0-|
|----0---0-0---0-|-(0)-0--0-(0)----0-----2-----0-|
|----------------|-------------------------------|
|----------------|-------------------------------|
|-0--------------|-------------------------------|


  Q  E E E     E     E E    E  E E E  S  S E q
|--------3b3.5-3b3.5-----|-----------------------|
|--------------------5p3-|-----------------------|
|------4-----------------|-----0-2p0--3p=2p0-----|
|------------------------|-------------------2---|
|------------------------|-----------------------|
|------------------------|-----------------------|
|
| Q  E E E     E     E E   +E  Q   E +E    E E E
|----0---------0-------2-|-(2)-0---0-(0)---0---0-|
|----0-0-3-----3p====0-0-|-(0)-0---3-(3)---0-2-0-|
|----0---0-----0-------0-|-(0)-0---0-(0)---0-2-0-|
|------------------------|-----------------------|
|------------------------|-----------------------|
|-0----------------------|-----------------------|


                               ~~~~~~~
  Q   A  E  E  Q.        E    +E      Q.     E   E Q
|----12s14-12-----------12-|-(12)b14------------12-----|
|----12s14----15b17--------|---------15----------------|
|--------------------------|---------------------------|
|--------------------------|---------------------------|
|--------------------------|---------------------------|
|--------------------------|---------------------------|
|
| Q      E  E  E    E E  E    +E      Q   E +E   E E E
|--------0----------0----2-|--(2)-----0---0-(0)--0---0-|
|--------0--0--3----3p0--0-|--(0)-----0---3-(3)--0-2-0-|
|--------0-----0----0----0-|--(0)-----0---0-(0)--0-2-0-|
|--------------------------|---------------------------|
|--------------------------|---------------------------|
|-0------------------------|---------------------------|


                   ~~~
   q   E     E  E  Q    E       H        E   Q.
|----------------------------|--------------17b19-----|
|-15-------------------------|------------------------|
|-----14b16-12-14------14b15-|------------------------|
|-----------------14---------|------------------------|
|----------------------------|------------------------|
|----------------------------|------------------------|
|
|  Q   E     E  E  E E  E      +E  Q  E +E   E    E E
|------0-----------0----2----|-(2)-0--0-(0)--0------0-|
|------0-----0--3--3p0--0----|-(0)-0--3-(3)--0----2-0-|
|------0--------0--0----0----|-(0)-0--0-(0)--0----2-0-|
|----------------------------|------------------------|
|----------------------------|------------------------|
|--0-------------------------|------------------------|


   Q.       E      +Q      Q          +E    Q.       Q.        E
|-17b19----17b19==(17)r---17b19====|=(17)r-17b19----17b19-----17b19==|
|----------------------------------|---------------------------------|
|----------------------------------|---------------------------------|
|----------------------------------|---------------------------------|
|----------------------------------|---------------------------------|
|----------------------------------|---------------------------------|
|
|  Q     E  E       E   E  E     E    +E    Q     E +E    E E  E
|--------0--------------0--------2-|--(2)---0-----0-(0)---0----0-----|
|--------0--0-------3---3p=0-----0-|--(0)---0-----3-(3)---0-2--0-----|
|--------0----------0---0--------0-|--(0)---0-----0-(0)---0-2--0-----|
|----------------------------------|---------------------------------|
|----------------------------------|---------------------------------|
|--0-------------------------------|---------------------------------|


   +Q     H.                 +E   +E   E  E      +Q      Q
|-(17)r--17b19============|=(17)r(17)-15-17b19==(17)r---15b17---|
|-------------------------|-------------------------------------|
|-------------------------|-------------------------------------|
|-------------------------|-------------------------------------|
|-------------------------|-------------------------------------|
|-------------------------|-------------------------------------|
|
|   Q     E     E E E E E    +E    Q      E      +E   E  E    E
|---------0---------0---2-|--(2)---0------0------(0)--0-------0-|
|---------0-----0-3-3p0-0-|--(0)---0------3------(3)--0--2----0-|
|---------0-------0-0---0-|--(0)---0------0------(0)--0--2----0-|
|-------------------------|-------------------------------------|
|-------------------------|-------------------------------------|
|---0---------------------|-------------------------------------|


      ~~~~~~~~~~~~~~~~~~~~~~~~~~~~~~~~~~
   E  Q    E  +E   Q    E    +E   Q   E  +S  S  S  S  S  S  S  S
|-17----------------------|--------------------------12-15p12----|
|----17---17-(17)-17---17-|-(17)-17--17-(17)Sx-12-15----------15-|
|-------------------------|--------------------------------------|
|-------------------------|--------------------------------------|
|-------------------------|--------------------------------------|
|-------------------------|--------------------------------------|
|
|  Q    E  E   E   E E  E    +E   Q   E  +E     E     E     E
|-------0----------0----2-|--(2)--0---0--(0)----0-----------0----|
|-------0--0---3---3p0--0-|--(0)--0---3--(3)----0-----2-----0----|
|-------0------0---0----0-|--(0)--0---0--(0)----0-----2-----0----|
|-------------------------|--------------------------------------|
|-------------------------|--------------------------------------|
|--0----------------------|--------------------------------------|


                          ~~~
   E  S  S  Q       S  S  Q    E
|-12----------------------------------|
|----15p12----------------------------|
|----------14b16---14-12------12b12.5-|
|------------------------14-----------|
|-------------------------------------|
|-------------------------------------|
|
|  Q        E    E  E     E E  E
|-----------0-------------0----2------|
|-----------0----0--3-----3p0--0------|
|-----------0-------0-----0----0------|
|-------------------------------------|
|-------------------------------------|
|--0----------------------------------|


                            ~~~~~~
   Q    E  E     E     +E   S  E.      E  S  S Q   H
|-----------------------------------|----------------------*|
|-----------------------------------|----------------------*|
|---------14b16-12b14r(12)----------|-12-------------------*|
|--------------------------14-14----|----14p12-------------*|
|-----------------------------------|----------------------*|
|-----------------------------------|----------------------*|
|
| +E  Q    E    +E      E   E     E    Q       E E E E E E
|-(2)-0----0----(0)-----0---------0-|----------0-----0---2-*|
|-(0)-0----3----(3)-----0---2-----0-|----------0-0-3-3p0-0-*|
|-(0)-0----0----(0)-----0---2-----0-|----------0---0-0---0-*|
|-----------------------------------|----------------------*|
|-----------------------------------|----------------------*|
|-----------------------------------|--0-------------------*|




--------------------------------------------------------------------------------


Duration Legend
---------------
W - whole; H - half; Q - quarter; E - 8th; S - 16th; T - 32nd; X - 64th; a - acciaccatura
+ - note tied to previous; . - note dotted; .. - note double dotted
Uncapitalized letters represent notes that are staccato (1/2 duration)
Irregular groupings are notated above the duration line
Duration letters will always appear directly above the note/fret number it represents the
duration for.  Duration letters with no fret number below them represent rests.  Multi-
bar rests are notated in the form Wxn, where n is the number of bars to rest for.  Low
melody durations appear below the staff

Tablature Legend
----------------
 h   - hammer-on
 p   - pull-off
 b   - bend
 pb  - pre-bend
 r   - bend release (if no number after the r, then release immediately)
 /\  - slide into or out of (from/to "nowhere")
 s   - legato slide
 S   - shift slide
 - natural harmonic
[n]  - artificial harmonic
n(n) - tapped harmonic
 ~   - vibrato
 tr  - trill
 T   - tap
 TP  - trem. picking
 PM  - palm muting
\n/  - tremolo bar dip; n = amount to dip
 \n  - tremolo bar down
 n/  - tremolo bar up
/n\  - tremolo bar inverted dip
 =   - hold bend; also acts as connecting device for hammers/pulls
 <> - volume swell (louder/softer)
 x   - on rhythm slash represents muted slash
 o   - on rhythm slash represents single note slash

Misc Legend
-----------
 |  - bar
||  - double bar
||o - repeat start
o|| - repeat end
*|  - double bar (ending)
 :  - bar (freetime)
 $  - Segno
 &  - Coda
Tempo markers -  = BPM(8/16=s8/s16), where s8 = swing 8ths, s16 = swing 16ths
Comments