Robert Cray - Smoking Gun Chords & Tabs

 

Smoking Gun Chords & Tabs

Robert Cray Chords & Tabs

Version: 1 Type: Tab 0 ratings
1 star 2 stars 3 stars 4 stars 5 stars
comments

Smoking Gun Tab

ALRIGHT THIS ISNT THE WHOLE SONG BUT IT IS IN MY OPINION THE BEST PART
[ Tab from: http://www.guitartabs.cc/tabs/r/robert_cray/smoking_gun_tab.html ]
--------0--------------0---1---0----------------|   (2x)
--------0---------3--------0-------2--0---------|
-------------4-----------------------------1--0-|
------------------------------------------------|
------------------------------------------------|
--0---------------------------------------------|

this is the part after that part.(note when it says to go like this
7/8 it means to slide one fret over)


-------------------------------------|   (2x)
-------------------------------------|
-------------------------------------|
---------5--7/8--7--5---7--5---------|
----7-----------------------------7--|

AND THAT IS ALL I KNOW OF THIS SONG HAVE FUN bY:J.R. BELL
Comments