Robert A From Nm - Vicious Chords & Tabs

 

Vicious Chords & Tabs

Robert A From Nm Chords & Tabs

Version: 1 Type: Tab 0 ratings
1 star 2 stars 3 stars 4 stars 5 stars
comments

Vicious Tab

   
1----------------------------------------------10-----------
2----------------------------------------------12-----------
3-----------------------------------------------------------
4-----2-3---------------------------------------------------
5---------3-2-2-2-2---3-2-2-3-2-2-3--0----------------------
6---0---------------0------------------2-3-12------0-5-8-7--
[ Tab from: http://www.guitartabs.cc/tabs/r/robert_a_from_nm/vicious_tab.html ]
A/B/E/C/D/C/G/A/C/C/C/A/C/G/G/C/G/A/A/A

1---0-0-----------------------10----------8------------0--
2-------2-----------------8-9-----------8-----------------
3---------4-------------8----------3-------8--------------
4-----------5---------7---------1-2----8----9---------2---
5-------------6-----7---------------9-7------9-------9----
6---------------6-6-------------------------------4-0-----

Comments