Robbie Williams - Shes The One Chords & Tabs

 

Shes The One Chords & Tabs

Robbie Williams Chords & Tabs

Version: 2 Type: Tab 0 ratings
1 star 2 stars 3 stars 4 stars 5 stars
comments

Shes The One Tab

Title: she's the one
Artist: robbie williams
[ Tab from: http://www.guitartabs.cc/tabs/r/robbie_williams/shes_the_one_tab_ver_2.html ]
|---0-2----0-2-3-2-----0-2---0-2-3-2----------------------|
|-3------3-----------3------3-----------------------------|
|---------------------------------------------------------|
|---------------------------------------------------------|
|---------------------------------------------------------|
|---------------------------------------------------------|

|-5-2-2-0-0-----2-0-0-2-----------------------------------|
|-----------0-2---------3-3-------------------------------|
|---------------------------------------------------------|
|---------------------------------------------------------|
|---------------------------------------------------------|
|---------------------------------------------------------|
Comments