Robbie Williams - Shes The One Chords & Tabs

 

Shes The One Chords & Tabs

Robbie Williams Chords & Tabs

Version: 1 Type: Tab 0 ratings
1 star 2 stars 3 stars 4 stars 5 stars
comments

Shes The One Tab

   
                     Robbie Williams-She's the one


    Bb                                     Eb
|--------------------------------|--------------------------------|
|3-------3---------------1---3---|3-------3---------------1---3---|
|3-------3-----------3-----------|3-------3---0---0---3---3---3---|
|3-------3---0---0---3---3-------|1-------5---1---1---1---1---5---|
|------------------------1-------|---------1---1------------------|
|--------------------------------|--------------------------------|
[ Tab from: http://www.guitartabs.cc/tabs/r/robbie_williams/shes_the_one_tab.html ]
                Bb                       Eb                F
|--------------------------------|--------------------------------|
|3-------3-----3---------1---3---|3-------3---------------1---3---|
|3-------3-----3-----3---3---3---|3-------3-----------3---3---3---|
|3-------3-----3-----3---3---3---|1-------5-----------1---3---1---|
|1-----------1-----------1-------|--------6---------------3-------|
|1-----------------------1-------|--------------------------------|


TabsMail...
http://tabsmail.8m.com
!Exclusive-TabsMail!

Comments