Robbie Williams - Old Before I Die Chords & Tabs

 

Old Before I Die Chords & Tabs

Robbie Williams Chords & Tabs

Version: 1 Type: Bass Tab 0 ratings
1 star 2 stars 3 stars 4 stars 5 stars
comments

Old Before I Die Bass Tab

	#========================================================#
	# ROBBIE WILLIAMS					 #
	# OLD BEFORE I DIE					 #
	#							 #
	# Tabbed by Robert Owen (rob@rainhill20.freeserve.co.uk) #
	#							 #
	#========================================================#

****************************************************************************
Intro :
G---2-2-2-----2---2-----2-|
D-----------2---2----2----|
A-------------------------| then ...
E-------------------------|

G------2-------2----|----2------------|
D----------------2--|------------0-2--|
A---0------00-------|-0------00-------|  X 2
E-------------------|-----------------|

***************************************************************************

Verse

G------2-------2----|----2------------|
D----------------2--|------------0-2--|
A---0------00-------|-0------00-------|  X 3
E-------------------|-----------------|

G-------------------|-------------5---|
D---4---4---4---4---|-3---3---3-------|
A-------------------|-----------------|
E-------------------|-----------------|

G-------2--------2--|-----2---------2-|-----2---------2-|-0------------|
D-------------------|-----------------|-----------------|--------------|
A---0-------0-0-----|-0-------0-0-----|-0----------2----|--------------|
E-------------------|-----------------|--------0--------|--------------|
***************************************************************************

Chorus

G---2-2-2-2-2-2-2---|-----------------|-----------------|-----------------|
D-----------------2-|-4-4-4-4-4-4-4-2-|-0-0-0-0-0-0-0-0-|-2-2-2-2-2-2-2-2-|
A-------------------|-----------------|-----------------|-----------------|
E-------------------|-----------------|-----------------|-----------------|


G---2-2-2-2-2-2-2---|-----------------|-----------------|-----------------|
D-----------------2-|-4-4-4-4-4-4-4-2-|-0-0-0-0-0-0-0-0-|-5-5-5-5-5-5-5-5-|
A-------------------|-----------------|-----------------|-----------------|
E-------------------|-----------------|-----------------|-----------------|


G---2---2---2---2---|-----------------|-4-4-4-4-4-2-4-6-|-7-7-7-7-7-7-7-7-|
D-------------2---2-|-4-4-4-4-4-4-4-4-|-----------------|-----------------|
A-------------------|-----------------|-----------------|-----------------|
E-------------------|-----------------|-----------------|-----------------|


G-------2-------2---|-----2-------2---|-4---4---4---4-6-|-8---------------|
D-------------------|-----------------|-----------2-----|-----------------|
A---0-------0-0-----|-0-------0-0-----|-----------------|-----------------|
E-------------------|-----------------|-----------------|-----------------|

***************************************************************************
Bass during Solo
[ Tab from: http://www.guitartabs.cc/tabs/r/robbie_williams/old_before_i_die_btab.html ]
G-------------------|-----------------|-----------------|-----------------|
D---4-4-4-4-4-3-2-1-|-0-0-0-0-0-0-0-2-|-----------------|-----------------|
A-------------------|-----------------|-0-0-0-0-0-0-0---|-----------------|
E-------------------|-----------------|---------------3-|-2-2-2-2-2-2-2-2-|


G-------------------|-----------------|-----------------|-----------------|
D---4-4-4-4-4-3-2-1-|-0-0-0-0-0-0-0-2-|-----------------|-----------------|
A-------------------|-----------------|-----------------|-----------------|
E-------------------|-----------------|-3-3-3-3-3-3-3-4-|-5-5-5-5-5-5-5-5-|
***************************************************************************
Key Change

G-------2--------2--|-----2-------2---|-----2--------2--|
D-------------------|-----------------|------------2----|
A---0-------0-0-----|-0-------0-0-----|-0-------0-------|
E-------------------|-----------------|-----------------|


G---0---------------|-0---------------|
D-----------0-------|-----------------|
A-------------------|-----------------|
E-------------------|-----------------|


G---5-5-5-5-5-5-5-0-|-2-2-2-2-2-2-2---|-----------------|-----------------|
D-------------------|---------------2-|-3-3-3-3-3-3-3-3-|-5-5-5-5-5-5-5-5-|
A-------------------|-----------------|-----------------|-----------------|
E-------------------|-----------------|-----------------|-----------------|


G---5---5---5-0-5-0-|-2-2-2-2-2-2-2-0-|-----------------|-3-3-3-3-3-3-3-3-|
D-------------------|-----------------|-3-3-3-3-3-3-3-3-|-----------------|
A-------------------|-----------------|-----------------|-----------------|
E-------------------|-----------------|-----------------|-----------------|


G---5-5-5-5-5-5-5-0-|-2-2-2-2-2-2-2-2-|-9-9-9-9-9-7-9-10|-111111111111111-|
D-------------------|-----------------|-----------------|-----------------|
A-------------------|-----------------|-----------------|-----------------|
E-------------------|-----------------|-----------------|-----------------|


G-------5-------5---|-----5-------5---|-----------------|-----------------|
D-------------------|-----------------|-----------------|-----------------|
A---3-------3-3-----|-2-------3-3-----|-5---5---5-3-5-7-|-10--------------|
E-------------------|-----------------|-----------------|-----------------|

****************************************************************************
Ending
Repeat till fade

G---5-5-5-5-5-5-5-0-|-2-2-2-2-2-2-2---|-----------------|-----------------|
D-------------------|---------------2-|-3-3-3-3-3-3-3-3-|-5-5-5-5-5-5-5-5-|
A-------------------|-----------------|-----------------|-----------------|
E-------------------|-----------------|-----------------|-----------------|

****************************************************************************

	Song Structure:
	Intro
	Verse
	Chorus
	Verse
	Chorus
	Solo
	KeyChange
	Ending


 ==========================================================================
|         Any Corrections email to rob@rainhill20.freeserve.co.uk          |
 ==========================================================================
Comments