Robbie Williams - Misunderstood Chords & Tabs

 

Misunderstood Chords & Tabs

Robbie Williams Chords & Tabs

Version: 1 Type: Tab 0 ratings
1 star 2 stars 3 stars 4 stars 5 stars
comments

Misunderstood Tab

   
-------------------------------------------------------------------------------
			     SONG NAME - Band Name
-------------------------------------------------------------------------------
Tabbed by: Christopher Ipsen	 
Email:     Chrisipsen@mail.dk

Tuning: Standard


      Down Stroke
          E                 A      *            
e|-----------------0---0----0---0---0---0-----|
B|------7----7-----7---7----0---0---0---0-----|
G|-----8-(9)--9----9---9----6---6---6---6-/-8-| x2
D|----9--------9---9---9----7---7---7---7-/-9-|
A|--------------------------0---0---0---0-----|
E|--------------------------------------------|

   verse
      Down Stroke
          E                 A      *
e|-----------------0---0----0---0---0---0-----|
B|------7----7-----7---7----0---0---0---0-----|
G|-----8-(9)--9----9---9----6---6---6---6-/-8-| x2
D|----9--------9---9---9----7---7---7---7-/-9-|
A|--------------------------0---0---0---0-----|
E|--------------------------------------------|


e|----0---0---0---0---0---0---0---0---0---0---0---0---2---2---2---2-|
B|----5---5---5---5---0---0---0---0---2---2---2---2---4---5---5/4-4-|
G|----6---6---6---6---6---6---6---6---2---2---2---2---4---4---4---4-|
D|----6---6---6---6---7---7---7---7---4---4---4---4---4---4---4---4-|
A|------------------------------------4---4---4---4-----------------|
E|------------------------------------------------------------------|

    Brigdes

e|----0---0---0---0---0---0---0---0---0---0---0---0---0---0---0---0-|
B|----2---2---2---2---0---0---0---0---7---7---7---7---0---0---0---0-|
G|----2---2---2---2---6---6---6---6---9---9---9---9---8---8---8---8-| x2
D|----4---4---4---4---7---7---7---7---9---9---9---9---9---9---9---9-|
A|----4---4---4---4---0---0---0---0---------------------------------|
E|------------------------------------------------------------------|

    Chorus
      Down Stroke
          E                 A      *
e|-----------------0---0----0---0---0---0-----|
B|------7----7-----7---7----0---0---0---0-----|
G|-----8-(9)--9----9---9----6---6---6---6-/-8-| x3
D|----9--------9---9---9----7---7---7---7-/-9-|
A|--------------------------0---0---0---0-----|
E|--------------------------------------------|
[ Tab from: http://www.guitartabs.cc/tabs/r/robbie_williams/misunderstood_tab.html ]
e|----0---0---0---0---2---2---2---2-|
B|----2---2---2---2---4---4---4---4-|
G|----2---2---2---2---4---4---4---4-|
D|----4---4---4---4---4---4---4---4-|
A|----4---4---4---4-----------------|
E|----------------------------------|

     Outro
      Down Stroke
          E                 A                  
e|-----------------0---0----0---0---0---0-----|    |--0-|
B|------7----7-----7---7----0---0---0---0-----|    |--7-|
G|-----8-(9)--9----9---9----6---6---6---6-/-8-| x3 |--9-| 
D|----9--------9---9---9----7---7---7---7-/-9-|    |--9-|
A|--------------------------0---0---0---0-----|    |----|
E|--------------------------------------------|    |----|


If there are two guitars, play this where the *īs are.

e|-------------------------|
B|-------------------------|
G|-------------------------|
D|-------------------------|
A|---------7------7------7-|
E|----7-(9)--7-(9)--7-(9)--|



Verse

 Tryin' to be misunderstood 
 But it doesn't do me any good 
 Love the way they smile at me 
 Held that face for eternity 
 Now let them all fly off 

Bridge
    
 When it comes down 
 It all comes down 
 You will not be found 
 When its over  
 It's all over 
 Even if I make a sound 

Chorus
 
 I'll be misunderstood 
 By the beautiful and good in...This city 
 None of it was pla-anned 
 Take me by the hand 
 Just don't try and understand 

Verse
 
 Try to be misunderstood 
 Just a product of my childhood 
 And still I find myself outside 
 You can't say I haven't tried 
 Perhaps I tried too hard 

Bridge

 No excuses 
 I won't apoligise 
 Or justify your lies 
 Come find me 
 Tell them to me 
 Look me in the eyes  

Chorus

 I'll be misunderstood 
 By the beautiful and good in...This city 
 None of this was planned 
 Take me by the hand 
 Just dont try and understand  

Outro 
   
 Can't forgive sorry to say 
 You don't know you're guilty anyway 
 Isn't it funny how we don't speak 
 The language of  love

    This isnīt 100% correct, but itīs my 1st Tab. Please wote, I would like to hear if it works.

| /  slide up
| \  slide down
| h  hammer-on
| p  pull-off
| ~  vibrato
| +  harmonic
| x  Mute note
===============================================================================
Comments