Robbie Williams - Millenium Chords & Tabs

 

Millenium Chords & Tabs

Robbie Williams Chords & Tabs

Version: 3 Type: Tab 0 ratings
1 star 2 stars 3 stars 4 stars 5 stars
comments

Millenium Tab

   
----------------------------------------------------------------------------
                  Millenium (Intro) Tab by Robbie Williams
----------------------------------------------------------------------------
Tabbed by: The Kenster
Email: ken@struanrobertson.demon.co.uk

Tuning: Standard

[ Tab from: http://www.guitartabs.cc/tabs/r/robbie_williams/millenium_tab_ver_3.html ]
e|-8---7-8-7---5-7-5---3-|----------------------------|
B|-----------------------|-11---10-11-10---8-10-8---6-|
G|-----------------------|----------------------------|
D|-----------------------|----------------------------|
A|-----------------------|----------------------------|
E|-----------------------|----------------------------|

e|-8---7-8-7---5-7-5---3-|----------------------------|
B|-----------------------|-11---10-11-10---8-10-8---6-|
G|-----------------------|----------------------------|
D|-----------------------|----------------------------|
A|-----------------------|----------------------------|
E|-----------------------|----------------------------|


| /  slide up
| \  slide down
| h  hammer-on
| p  pull-off
| ~  vibrato
| +  harmonic
| x  Mute note
============================================================================
Comments