Robbie Williams - Millenium Chords & Tabs

 

Millenium Chords & Tabs

Robbie Williams Chords & Tabs

Version: 1 Type: Bass Tab 0 ratings
1 star 2 stars 3 stars 4 stars 5 stars
comments

Millenium Bass Tab

   
Song: Millennium
Artist: Robbie Williams
Album: The Ego Has Landed
Correction Tabbed By: Julian Wathen (julianwathen@hotmail.com)
http://www.basstabarchive.com/
[ Tab from: http://www.guitartabs.cc/tabs/r/robbie_williams/millenium_btab.html ]
  John Barry intro riff (In whatever octave you like -
                         tabbed in this one for simplicity,
                         probably better up the neck tho')
G:6-565-353-------|4-343-131-------|
D:o-----------6---|------------4--o|
A:o---------------|---------------o|
E:----------------|----------------|
  Verse/Chorus riff
  Db               Abm7
 G: ----------------|----------------|
 D:o----------------|---------------o|
 A:o6-------6-------|--------2------o|
 E: --------1-2---4-|4------4--4---24|
(B: 4------4--------|--------0-------|        )
(if you have a 5-string play this as it sounds)
(on recording, or detune 1+1/2 step to Ab for )
(totally mutt's nuts heaviness...             )
The verse/chorus riff repeats for the whole song with the
odd rythmic embellishments.  The bass never plays the
John Barry part, but you might as well to liven it up a bit.


Original submission:
Robbie Williams
The Ego Has Landed
Millineum
Tabbed By: Ben Gonzales
G:--------------------------------------------------------|
D:--------------------------------------------------------|
A:-----8-9-10-11-----11-13-11-----------------------------|
E:--9-----------------------------------------------------|
I tabbed this myslef.  It sounds correct.  I was stuck between
this and the octave higher, but I like this one better personally.
This is the octave higher.  Try them both, see which one you like the best.
G:--------------------------------------------------------|
D:------3-4-5-6------6-8-6--------------------------------|
A:--4-----------------------------------------------------|
E:--------------------------------------------------------|
Comments