Robbie Williams - Its Only Us Chords & Tabs

 

Its Only Us Chords & Tabs

Robbie Williams Chords & Tabs

Version: 1 Type: Tab 0 ratings
1 star 2 stars 3 stars 4 stars 5 stars
comments

Its Only Us Tab

   
Band/Artist:    Robbie Williams
Song Title:     Its Only Us (Fifa 2000 theme)
Tabbed By:       Jose Jankunas
e-mail:         jankunas_rock@yahoo.com

. means: do the chord for a bunch of times (listen to the song for details)
$ means: let ring


Intro:
e/---------------------------------/
B/------------------------------x--/
G/------------------------------4--/
D/--9.--------------9.--4.------4--/
A/--7---6.--4.--7.--7---2---4.--2--/
E/------4---2---5-----------2---x--/
[ Tab from: http://www.guitartabs.cc/tabs/r/robbie_williams/its_only_us_tab.html ]
Chorus:
e/--------------------------------------/
B/--------------------------------------/
G/------5.--4-----------2.--5.--4.------/
D/--7.--5---4---2.--0---2---5---4---2$--/
A/--7---3---2---2---2---0---3---2---2---/
E/--5-----------0---0---------------0---/

Verse:
e/---------------------------------/
B/---------------------------------/
G/--9.--------------9.--4.------4--/
D/--9---6.--4.--7.--9---4---4.--4--/
A/--7---6---4---7---7---2---4---2--/
E/------4---2---5-----------2------/

Chorus:
e/--------------------------------------/
B/--------------------------------------/
G/------5.--4-----------2.--5.--4.------/
D/--7.--5---4---2.--0---2---5---4---2$--/
A/--7---3---2---2---2---0---3---2---2---/
E/--5-----------0---0---------------0---/


Solo (Chords)

E B A C
E B A C
E B A C B

E B

Chorus---

ENJOY
Comments