Robbie Williams - Feel Chords & Tabs

 

Feel Chords & Tabs

Robbie Williams Chords & Tabs

Version: 1 Type: Bass Tab 0 ratings
1 star 2 stars 3 stars 4 stars 5 stars
comments

Feel Bass Tab

   
Robbie Williams - Feel

The bass starts after VERSE 1 and CHORUS 1; at the second verse:

VERSE 2:

I don't 
wanna die..
G---|------------|------------|------------|-------------|
D---|------------|------------|------------|-------------|
A12\|-5--55--5---|-3--33--3---|-4--44--4---|-------4-----|
E---|------------|------------|------------|-5--55---5-4-|

G------------|------------|------------|-------------|
D------------|------------|------------|-------------|
A------------|------------|------------|-------7-4---|
E-3--33--3---|-1--11--1---|-0--00--0---|-5--55-----5-|

G------------|------------|------------|-------------|
D------------|------------|------------|-------------|
A-5--55--5---|-3--33--3---|-4--44--4---|-------4-----|
E------------|------------|------------|-5--55---5-4-|

G------------|------------|------------|-------------|
D------------|------------|------------|-7-7-77--7\--|
A------------|------------|----------57|-------------|
E-3--33--3---|-1--11--1---|-0--00--0---|-------------|

CHORUS:
G------------|------------|------------|------------|
D------------|------------|------------|------------|
A-1-1-1--1--3|------------|-3-3-3--3---|-3-3-3--3-3-|
E------------|-1-1-1--1-3-|----------3-|------------|

G------------|------------|------------|------------|
D------------|------------|------------|------------|
A-1-1-1--1--3|------------|-3-3-3--3---|-3-3-3--3-3-|
E------------|-1-1-1--1-3-|----------3-|------------|

G------------|------------|------------|------------|
D------------|------------|----------5-|------------|
A-1-1-1--1--3|------------|-3-3-3--3---|-3-3-3--3-4-|
E------------|-1-1-1--1-3-|------------|------------|

INTERLUDE:
G------------|------------|------------|---------9\-|
D------------|------------|------------|------------|
A-5\---------|------------|------------|-----8/10---|
E------------|------------|------------|------------|

G------------|------------|------------|------------|
D------------|------------|------------|------------|
A-5-5-5------|------------|-5-5-5------|------------|
E--------5-5-|-1-1-1--3-3-|--------5-5-|-1-1-1--3-3-|
[ Tab from: http://www.guitartabs.cc/tabs/r/robbie_williams/feel_btab.html ]
G------------|------------|---7-7--9-9-|-10-10-10--12-12\|
D------------|------------|------------|-----------------|
A-5-5-5------|------------|-5----------|-----------------|
E--------5-5-|-1-1-1--3-3-|------------|-----------------|

CHORUS:
G------------|------------|------------|------------|
D------------|------------|----------5-|------------|
A-1-1-1--1--3|------------|-3-3-3--3---|-3-3-3--3-3-|
E------------|-1-1-1--1-3-|------------|------------|

G------------|------------|----------5-|------------|
D------------|------------|------------|------------|
A-1-1-1--1--3|------------|-3-3-3--3---|-3-3-3--3-3-|
E------------|-1-1-1--1-3-|------------|------------|

G------------|------------|------------|------------|
D------------|------------|----------5-|------------|
A-1-1-1--1--3|------------|-3-3-3--3---|-3-3-3--3-3-|
E------------|-1-1-1--1-3-|------------|------------|

G------------|------------|----------5-|------------|
D------------|------------|------------|------------|
A-1-1-1--1--3|------------|-3-3-3--3---|-3-3-3--3-4-|
E------------|-1-1-1--1-3-|------------|------------|

INTERLUDE:
G------------|------------|------------|------------|
D------------|------------|------------|------------|
A-5\---------|------------|------------|--------/12\|
E------------|------------|------------|------------|

G------------|------------|------------|------------|
D------------|------------|------------|------------|
A-5-5-5------|------------|-5-5-5------|------------|
E--------5-5-|-1-1-1--3-3-|--------5-5-|-1-1-1--3-3-|

G------------|------------|---7-7--9-9-|-10-10-10--12-12\|
D------------|------------|------------|-----------------|
A-5-5-5------|------------|-5----------|-----------------|
E--------5-5-|-1-1-1--3-3-|------------|-----------------|

G------------|------------|------------|------------|
D------------|------------|------------|------------|
A-5-5-5------|------------|-5-5-5------|------------|
E--------5-5-|-1-1-1--3-3-|--------5-5-|-1-1-1--3-3-|

G------------|------------|---7-7--9-9-|-10-10-10--12-12\|
D------------|------------|------------|-----------------|
A-5-5-5------|------------|-5----------|-----------------|
E--------0-0-|-1-1-1--3-3-|------------|-----------------|

G------------|
D-0-let ring |
A------------|
E------------|
Comments