Robbie Williams - Angels Chords & Tabs

 

Angels Chords & Tabs

Robbie Williams Chords & Tabs

Version: 2 Type: Tab

Angels Tab

e|----------------------------| 
B|-11-9-----------------------| 
G|------10-10/12--------------| 
D|----------------------------| 
A|----------------------------| 
E|----------------------------| ( 2x ) 
 
e|----------------------------| 
B|-11-9---------9-10----------| 
G|------10-9--9---------------| 
D|----------------------------| 
A|----------------------------| 
E|----------------------------| 
 
e|----------------------------| 
B|-11-9-----------------------| 
G|------10-10/12--------------| 
D|----------------------------| 
A|----------------------------| 
E|----------------------------| ( 2x ) 
 
e|----------------------------| 
B|-11-9---------9-10----------| 
G|------10-9--9---------------| 
D|----------------------------| 
A|----------------------------| 
E|----------------------------| 

e|----------------------------| 
B|-11-9-----------------------| 
G|------10-10/12--------------| 
D|----------------------------| 
A|----------------------------| 
E|----------------------------| ( 2x ) 
 
e|----------------------------| 
B|-11-9---------9-10----------| 
G|------10-9--9---------------| 
D|----------------------------| 
A|----------------------------| 
E|----------------------------| 
 
e|----------------------------| 
B|-11-9-----------------------| 
G|------10-10/12--------------| 
D|----------------------------| 
A|----------------------------| 
E|----------------------------| ( 2x ) 
 
e|----------------------------| 
B|-11-9---------9-10----------| 
G|------10-9--9---------------| 
D|----------------------------| 
A|----------------------------| 
E|----------------------------| 
[ Tab from: http://www.guitartabs.cc/tabs/r/robbie_williams/angels_tab_ver_2.html ]