Rob Zombie - Two Lane Blacktop Chords & Tabs

 

Two Lane Blacktop Chords & Tabs

Rob Zombie Chords & Tabs

Version: 1 Type: Tab

Two Lane Blacktop Tab

   
Band- Rob Zombie
Song- Two Lane Blacktop

/ = slide up
\ = slide down
#*= artifical harmonic
* = palm mute
h = hammer
p = pull off
b = bend

standard tuning (EADGBe)

Intro
e--------    -----------------|
B--------    --7-9-9-11-9-7-9-| (guessing)
G--------    -----------------| on 4th time
D--4-66--    -----------------|
A--4-66--    -----------------|
E--2-44--    -----------------|

(do chorus once)

Verse

e------------------|
B------------------|
G------------------|
D--4-6------6-9\6--|
A--4-6(x16)-6-9\6--|
E--2-4------4-7\4--|
     *

Chorus

(guitar 1)
e----------------|
B----------------|
G----------------|
D--4-66666666----|x4
A--4-66666666----|
E--2-44444444----|
      *******

(guitar 2)

e-------------    ---------------|
B-------------    --666-555-444--|
G--6/88888888-    --555-444-333--| on 4th time
D--4/66666666-    ---------------|
A-------------    ---------------|
E-------------    ---------------|


solo thingy
[ Tab from: http://www.guitartabs.cc/tabs/r/rob_zombie/two_lane_blacktop_tab.html ]
(fill under solo)(guitar 1)
e------------------|
B------------------|
G------------------|
D--44/6--6-666666--|
A--44/6--6-666666--|
E--22/4--4-444444--|
           ******

(solo)(guitar 2)
e---------------------------------------------------------------|
B--9h12p9h12p9-12h14p12h14p12-9h11p9h11p9-12b--12-11-9----9-11b-|
G------------------------------------------------------11-------|
D---------------------------------------------------------------|
A---------------------------------------------------------------|
E---------------------------------------------------------------|

e-------------------------------------------------------------------|
B--9h12p9h12p9-12h14p12h14p12-9h11p9h11p9-12b--12*-9-12*-9----9-11b-|
G----------------------------------------------------------11-------|
D-------------------------------------------------------------------|
A-------------------------------------------------------------------|
E-------------------------------------------------------------------|