Rob Zombie - Superbeast Chords & Tabs

 

Superbeast Chords & Tabs

Rob Zombie Chords & Tabs

Version: 1 Type: Tab 0 ratings
1 star 2 stars 3 stars 4 stars 5 stars
comments

Superbeast Tab

SUPERBEAST
by Rob Zombie

Tabbed by Tom "Zombie" Ellerby (ellerby@xtra.co.nz)
Revised by Mike Moore


                                             intro/post chorus      
E------------------------------------------------------------------------
B------------------------------------------------------------------------
G---11--\--9--9--9--9--9--9--9-----9--\--8--8--8--8--8--8--8-----5--5----
D---11--\--9--9--9--9--9--9--9-----9--\--8--8--8--8--8--8--8-----5--5----
A----8--\--7--7--7--7--7--7--7-----7--\--6--6--6--6--6--6--6-----3--3----
E------------------------------------------------------------------------
                                                                        

                                                                        
E------------------------------------------------------------------------
B------------------------------------------------------------------------
G---5--5--5--5--5--5-----5--/--6--6--6--6--6--6--6-----------------------
D---5--5--5--5--5--5-----5--/--6--6--6--6--6--6--6-----------------------
A---3--3--3--3--3--3-----3--/--4--4--4--4--4--4--4-----------------------
E------------------------------------------------------------------------
                                                                        

                                         pre-verse            
E------------------------------------------------------------------------
B------------------------------------------------------------------------
G------------------------------------------------------------------------
D------------------------------------------------7-----------------------
A------------------------------------------------7-----------------------
E---------------------------------1--0--1--0--0--5--0--1--0--1--0--0-----
                                                                        
[ Tab from: http://www.guitartabs.cc/tabs/r/rob_zombie/superbeast_tab.html ]
                                                                        
E------------------------------------------------------------------------
B------------------------------------------------------------------------
G------------------------------------------------------------------------
D---5--------------------7--------------------4--------------------------
A---5--------------------7--------------------4--------------------------
E---3--0--1--0--1--0--0--5--0--1--0--1--0--0--2--------------------------
                                                                        

                          verse                                              
E------------------------------------------------------------------------
B------------------------------------------------------------------------
G------------------------------------------------------------------------
D---------------------------------------7--------------------------------
A---------------------------------------7--------------------------------
E------0-----0--0-----0-----0-----0--0--5--------------------------------
                                                                        

                                     chorus                                   
E------------------------------------------------------------------------
B------------------------------------------------------------------------
G------------------------------------------------------------------------
D------------------7--------------------------5--------------------7-----
A---3--2--3--------7--------2--3--2--3--------5--2--3--2--3--------7-----
E---1--0--1--0--0--5--------0--1--0--1--0--0--3--0--1--0--1--0--0--5-----
  hey             yeah!           one that you wanted!                     

                                                                        
E------------------------------------------------------------------------
B------------------------------------------------------------------------
G------------------------------------------------------------------------
D---------------------4--------------------------------------------------
A---2--3--2--3--------4--------------------------------------------------
E---0--1--0--1--0--0--2--------------------------------------------------
                   superbeast!!
Comments