Rob Zombie - Pussy Liquor Chords & Tabs

 

Pussy Liquor Chords & Tabs

Rob Zombie Chords & Tabs

Version: 1 Type: Bass Tab 0 ratings
1 star 2 stars 3 stars 4 stars 5 stars
comments

Pussy Liquor Bass Tab

Band: Rob Zombie
Bassist: Blasko
Song: Pussy Liquor
Album: House of 1000 Corpses Soundtrack
Tuning: Standard EADG
Notes: This is an awesome bass riff, and bass basically dominates this song.
[ Tab from: http://www.guitartabs.cc/tabs/r/rob_zombie/pussy_liquor_btab.html ]
   Main Riff
G:------------------------------------------------------------------------------------|
D:------------------------------------------------------------------------------------|
A:-----------1------------------1------------------1----------------------------------|
E:--1--4--1----4--1--1--4--1----4--1--1--4--1----4--1---------------------------------|

   Verse
G:-----------------------------------------------------------------------------------|
D:-----------------------------------------------------------------------------------|
A:----------------------------1------------------------------------------------------|
E:--1-----1--1----1--1----1---4------------------------------------------------------|

Listen to the song to get the correct timing and order. This is a really fun song to play.
Enjoy
Comments