Rob Zombie - Never Gonna Stop Chords & Tabs

 

Never Gonna Stop Chords & Tabs

Rob Zombie Chords & Tabs

Version: 4 Type: Tab 0 ratings
1 star 2 stars 3 stars 4 stars 5 stars
comments

Never Gonna Stop Tab

ROB ZOMBIE: NEVER GONNA STOP~

INTRO:

GTR1:
E|------------------------------------|----------------------------------|
B|------------------------------------|----------------------------------|
G|------------------------------------|----------------------------------|
D|-----10-----12-----8-----8-----8-10-|-----10-----12-----8-----8-----8-7|X3
A|------------------------------------|----------------------------------|
E|-8-8----8-8----8-8---8-8---8-8------|-8-8----8-8----8-8---8-8---8-8----|

GTR2: STARTS AT THE END OF GTR 1 X1.
E|-----------------|
B|-----------------|
G|-----------------|
D|-----------------| X7
A|-3-3-3-----1-3-1-|
E|-------1-3-------|

VERSE:
E|-----------------|
B|-----------------|
G|-----------------|
D|-----------------| X8
A|-3-3-3-----1-3-1-|
E|-------1-3-------|

[ Tab from: http://www.guitartabs.cc/tabs/r/rob_zombie/never_gonna_stop_tab_ver_4.html ]
CHORUS:
E|----------------------------|-------------------------|
B|----------------------------|-------------------------|
G|----------------------------|-------------------------|
D|-3-55-3-5-8--3-55-3-5-------|-3-55-3-5-8--3-55-3-5--8-|
A|-3-55-3-5-8--3-55-3-5--3/5~-|-3-55-3-5-8--3-55-3-5--8-|
E|-1-33-1-3-6--1-33-1-3-------|-1-33-1-3-6--1-33-1-3--6-|

E|----------------------------|----------------------|
B|----------------------------|----------------------|
G|----------------------------|----------------------|
D|-3-55-3-5-8--3-55-3-5-------|-3-55-3-5-8--3-55-3-5-|
A|-3-55-3-5-8--3-55-3-5--3/5~-|-3-55-3-5-8--3-55-3-5-|
E|-1-33-1-3-6--1-33-1-3-------|-1-33-1-3-6--1-33-1-3-|

INTRO.

VERSE.

CHORUS.

PART 1:
E|--------------|
B|-6-8-8-6-6/8~-|
G|--------------|
D|--------------|
A|--------------|
E|--------------|

PART 2:
GTR 1:
E|----------------------------------------|
B|----------------------------------------|
G|----------------------------------------|
D|-33XX-33XX--55-3-5-8---33XX-33XX-55-3-5-| X2
A|-33XX-33XX--55-3-5-8---33XX-33XX-55-3-5-|
E|-11XX-11XX--33-1-3-6---11XX-11XX-33-1-3-|

GTR 2:
E|-------------------|
B|-6-6--6/8-6--6/8-6-|
G|-------------------|
D|-------------------| X4
A|-------------------|
E|-------------------|



INTRO.

VERSE.

CHORUS.

PART 1.

PART 2.
Comments