Rob Zombie - Never Gonna Stop Chords & Tabs

 

Never Gonna Stop Chords & Tabs

Rob Zombie Chords & Tabs

Version: 3 Type: Tab 0 ratings
1 star 2 stars 3 stars 4 stars 5 stars
comments

Never Gonna Stop Tab

   
NEVER GONNA STOP
Rob Zombie
(From the 2001 Album THE SINISTER URGE)
Words and Music by Rob Zombie and Scott Humphrey


( Can anyone tell me the meaning of this song!!!!!)

          D5                   G5                   A5                   C5
      x 5 7 7 x x          3 5 x x x x          5 7 x x x x         8 10 x x x x

Gtr I (D G C F A D) - 'Electric (w/distortion)'
Gtr II (D G C F A D) - 'Electric (w/distortion)'
Gtr III (D G C F A D) - 'Acoustic'

 h   - hammer-on
 b   - bend
 r   - bend release (if no number after the r, then release immediately)
 s   - legato slide
 PM  - palm muting
 =   - hold bend; also acts as connecting device for hammers/pulls
 x   - on rhythm slash represents muted slash
 ()  - still ringing the previous note
 \   - slide  out of 

 Intro
  
               N.C.
  Gtr I
          
|-----------------|-----------------|-----------------|-------------------|
|-----------------|-----------------|-----------------|-------------------|
|-----7-----9-----|-5-----5-----5s7-|-----7-----9-----|-5-----5-----5s4---|
|-0-0---0-0---0-0-|---0-0---0-0-----|-0-0---0-0---0-0-|---0-0---0-0-------|
|-----------------|-----------------|-----------------|-------------------|
|-----------------|-----------------|-----------------|-------------------|


Pre Verse

Double Guitar- Guitar I and Guitar II playing at the same time 

 repeat this 2 times
   Gtr I 
||--------------------------|------------------------|
||--------------------------|------------------------|
||-------7---------9--------|--5------5---------5s=7-|
||--0-0----0---0-------0--0-|----0-0------0--0-------|
||--------------------------|------------------------|
||--------------------------|------------------------|
|
|   Gtr II
|   
||--------------------------|------------------------|
||--------------------------|------------------------|
||------19--------21--------|-17-----17--------17-19-|
||--------------------------|------------------------|
||--------------------------|------------------------|
||--------------------------|------------------------|


  Gtr I
|-------------------------|--------------------------||
|-------------------------|--------------------------||
|------7---------9--------|--5------5---------5s=4---||
|-0-0----0---0-------0--0-|----0-0------0--0---------||
|-------------------------|--------------------------||
|-------------------------|--------------------------||
|
| Gtr II 
|-------------------------|--------------------------||
|-------------------------|--------------------------||
|-----19--------21--------|-17-----17--------17-16---||
|-------------------------|--------------------------||
|-------------------------|--------------------------||
|-------------------------|--------------------------||


   Chorus 1
    D5
    Gtr III
    
||----------------------|----------------------||
||----------------------|----------------------||
||--7-----7-7-----------|-7-----7-7------------||<<-- Repeat this 4 times
||--7-----7-7-----------|-7-----7-7------------||
||--5-----5-5-----3-5-3-|-5-----5-5-----3-5-3--||
||------------3-5-------|-----------3-5--------||


 Chorus 2
  G5A5  G5A5    C5         G5A5  G5A5
  Gtr I
  
|------------------------|----------------------|
|------------------------|----------------------|
|------------------------|-------------7b9------|
|------------------------|----------------------|
|------------------------|----------------------|
|------------------------|----------------------|
|
| Gtr II
| 
|------------------------|----------------------|
|------------------------|----------------------|
|------------------------|----------------------|
|------------------------|----------------------|
|-5-7-7-5-7-----10-------|-5-7-7-5-7------------|
|-3-5-5-3-5------8-------|-3-5-5-3-5------------|


 
  Gtr I
|------------------------|----------------------|
|-8----------------------|----------------------|
|------------------------|----------------------|
|------------------------|----------------------|
|------------------------|----------------------|
|------------------------|----------------------|
|
| Gtr II
|------------------------|----------------------|
|------------------------|----------------------|
|------------------------|----------------------|
|------------------------|----------------------|
|-5-7-7-5-7-----10-------|-5-7-7-5-7---10-------|
|-3-5-5-3-5------8-------|-3-5-5-3-5----8-------|


  G5A5  G5A5    C5         G5A5  G5A5
  Gtr I
|------------------------|----------------------|
|------------------------|----------------------|
|------------------------|-------------7b9------|
|------------------------|----------------------|
|------------------------|----------------------|
|------------------------|----------------------|
|
| Gtr II
|------------------------|----------------------|
|------------------------|----------------------|
|------------------------|----------------------|
|------------------------|----------------------|
|-5-7-7-5-7-----10-------|-5-7-7-5-7------------|
|-3-5-5-3-5------8-------|-3-5-5-3-5------------|


  G5A5  G5A5    C5         G5 A5    G5 A5
  Gtr I
|------------------------|---------------------||
|-8----------------------|---------------------||
|------------------------|-12-14-14-12-14------||
|------------------------|---------------------||
|------------------------|---------------------||
|------------------------|---------------------||
|
| Gtr II
|------------------------|---------------------||
|------------------------|---------------------||
|------------------------|---------------------||
|------------------------|---------------------||
|-5-7-7-5-7-----10-------|--5--7--7--5--7------||
|-3-5-5-3-5------8-------|--3--5--5--3--5------||


   
 Verse 
  D5
  Gtr I
   
|-------------------------------|---------------------------|
|-------------------------------|---------------------------|
|-------------------------------|---------------------------|
|---------------------15b16-----|---------------------------|
|-17-17------17-17-17-----------|-17-17------17-17-17-17-17-|
|-------------------------------|---------------------------|
|
| Gtr III
|  
|-------------------------------|---------------------------|
|-------------------------------|---------------------------|
|--7-----7-7--------------------|--7-----7-7----------------|
|--7-----7-7--------------------|--7-----7-7----------------|
|--5-----5-5--------3--5------3-|--5-----5-5--------3--5--3-|
|-------------3--5--------------|-------------3--5----------|


   Gtr I
|-------------------------------|------------------------------|
|-------------------------------|------------------------------|
|-------------------------------|------------------------------|
|---------------------15b16-----|-20------------19--------17---|
|-17-17------17-17-17-----------|------------------------------|
|-------------------------------|------------------------------|
|
|  Gtr III
|-------------------------------|------------------------------|
|-------------------------------|------------------------------|
|--7-----7-7--------------------|--7-----7---7-----------------|
|--7-----7-7--------------------|--7-----7---7-----------------|
|--5-----5-5--------3--5------3-|--5-----5---5----------3--5-3-|
|-------------3--5--------------|----------------3---5---------|


   Gtr I
|-------------------------------|-------------------------------|
|-------------------------------|-------------------------------|
|-------------------------------|-------------------------------|
|---------------------15b16-----|---------------------15b16-----|
|-17-17------17-17-17-----------|-17-17------17-17-17-----------|
|-------------------------------|-------------------------------|
|
|  Gtr III
|-------------------------------|-------------------------------|
|-------------------------------|-------------------------------|
|--7-----7-7--------------------|--7-----7-7--------------------|
|--7-----7-7--------------------|--7-----7-7--------------------|
|--5-----5-5--------3--5------3-|--5-----5-5--------3--5------3-|
|-------------3--5--------------|-------------3--5--------------|


   Gtr I
|-------------------------------|------------------------------||
|-------------------------------|------------------------------||
|-------------------------------|------------------------------||
|---------------------15b16-----|-20------------19--------17---||
|-17-17------17-17-17-----------|------------------------------||
|-------------------------------|------------------------------||
|
|  Gtr III
|-------------------------------|------------------------------||
|-------------------------------|------------------------------||
|--7-----7-7--------------------|--7-----7---7-----------------||
|--7-----7-7--------------------|--7-----7---7-----------------||
|--5-----5-5--------3--5------3-|--5-----5---5----------3--5-3-||
|-------------3--5--------------|----------------3---5---------||


 Chorus 3

  G5A5  G5A5    C5         G5A5  G5A5
  Gtr I
  
|------------------------|----------------------|
|------------------------|----------------------|
|------------------------|-------------7b9--(7)-|
|------------------------|----------------------|
|------------------------|----------------------|
|------------------------|----------------------|
|
| Gtr II
| 
|------------------------|----------------------|
|------------------------|----------------------|
|------------------------|----------------------|
|------------------------|----------------------|
|-5-7-7-5-7-----10-------|-5-7-7-5-7------------|
|-3-5-5-3-5------8-------|-3-5-5-3-5------------|

[ Tab from: http://www.guitartabs.cc/tabs/r/rob_zombie/never_gonna_stop_tab_ver_3.html ]
  G5A5  G5A5    C5         G5A5  G5A5  C5
  Gtr I
|------------------------|----------------------|
|-8----------------------|----------------------|
|------------------------|----------------------|
|------------------------|----------------------|
|------------------------|----------------------|
|------------------------|----------------------|
|
| Gtr II
|------------------------|----------------------|
|------------------------|----------------------|
|------------------------|----------------------|
|------------------------|----------------------|
|-5-7-7-5-7-----10-------|-5-7-7-5-7---10-------|
|-3-5-5-3-5------8-------|-3-5-5-3-5----8-------|


  G5A5  G5A5    C5         G5A5  G5A5
  Gtr I
|------------------------|----------------------|
|------------------------|----------------------|
|------------------------|-------------7b9--(7)-|
|------------------------|----------------------|
|------------------------|----------------------|
|------------------------|----------------------|
|
|Gtr II
|------------------------|----------------------|
|------------------------|----------------------|
|------------------------|----------------------|
|------------------------|----------------------|
|-5-7-7-5-7-----10-------|-5-7-7-5-7------------|
|-3-5-5-3-5------8-------|-3-5-5-3-5------------|


  G5A5  G5A5    C5         G5 A5    G5 A5      C5
                                           ~~~
  Gtr I
|------------------------|------------------------------||
|-8----------------------|------------------------------||
|------------------------|-12-14-14-12-14-14------------||
|------------------------|------------------------------||
|------------------------|------------------------------||
|------------------------|------------------------------||
|
| Gtr II
|------------------------|------------------------------||
|------------------------|------------------------------||
|------------------------|------------------------------||
|------------------------|------------------------------||
|-5-7-7-5-7-----10-------|--5--7--7--5--7---------------||
|-3-5-5-3-5------8-------|--3--5--5--3--5------15-(15)\-||


 Bridge 1

  G5                                  A5  G5A5    C5
  Gtr I
|-----------------------------------|----------------------|
|-----------------------------------|----------------------|
|-12-12-12b14r(12)-12-12b14r(12)-12-|----------------------|
|-----------------------------------|----------------------|
|-----------------------------------|----------------------|
|-----------------------------------|----------------------|
|
| Gtr II
|        PM---|               PM-|
|  
|-----------------------------------|----------------------|
|-----------------------------------|----------------------|
|-----------------------------------|----------------------|
|-----------------------------------|----------------------|
|--5--5-------------5--5------------|-7-7-5-7s10-----------|
|--3--3--3------3---3--3------3---3-|-5-5-3-5S=8-----------|


  G5                                  A5  G5A5
   Gtr I
|-----------------------------------|---------------------|
|-----------------------------------|---------------------|
|-12-12-12b14r(12)-12-12b14r(12)-12-|---------------------|
|-----------------------------------|---------------------|
|-----------------------------------|---------------------|
|-----------------------------------|---------------------|
|
|        PM---|               PM-|
|  Gtr II
|-----------------------------------|---------------------|
|-----------------------------------|---------------------|
|-----------------------------------|---------------------|
|-----------------------------------|---------------------|
|--5--5-------------5--5------------|-7-7-5-7-----(7)\----|
|--3--3--3------3---3--3------3---3-|-5-5-3-5-----(5)\----|


  G5                                  A5  G5A5    C5
   Gtr I
|-----------------------------------|----------------------|
|-----------------------------------|----------------------|
|-12-12-12b14r(12)-12-12b14r(12)-12-|----------------------|
|-----------------------------------|----------------------|
|-----------------------------------|----------------------|
|-----------------------------------|----------------------|
|
|        PM---|               PM-|
|  Gtr II
|-----------------------------------|----------------------|
|-----------------------------------|----------------------|
|-----------------------------------|----------------------|
|-----------------------------------|----------------------|
|--5--5-------------5--5------------|-7-7-5-7S10-(10)------|
|--3--3--3------3---3--3------3---3-|-5-5-3-5S=8--(8)------|


                          To Coda
  G5                                  A5  G5A5
   Gtr I
|-----------------------------------|---------------------||
|-----------------------------------|---------------------||
|-12-12-12b14r(12)-12-12b14r(12)-12-|---------------------||
|-----------------------------------|---------------------||
|-----------------------------------|---------------------||
|-----------------------------------|---------------------||
|
|        PM---|               PM-|
|  Gtr II
|-----------------------------------|---------------------||
|-----------------------------------|---------------------||
|-----------------------------------|---------------------||
|-----------------------------------|---------------------||
|--5--5-------------5--5------------|-7-7-5-7------(7)\---||
|--3--3--3------3---3--3------3---3-|-5-5-3-5------(5)\---||


                                          
  N.C.                                                
  Gtr I
|-------------------------|------------------------||
|------7---------9--------|--5------5---------5--7-||
|-0-0----0---0-----0---0--|----0-0------0--0-------||
|-------------------------|------------------------||
|-------------------------|------------------------||
|-------------------------|------------------------||
|
| Gtr II
|-------------------------|------------------------||
|-------------------------|------------------------||
|-----19--------21--------|-17-----17--------17-19-||
|-------------------------|------------------------||
|-------------------------|------------------------||
|-------------------------|------------------------||


Brigde 2
G5                                  A5  G5A5    C5
  Gtr I
|-----------------------------------|----------------------|
|-----------------------------------|----------------------|
|-12-12-12b14r(12)-12-12b14r(12)-12-|----------------------|
|-----------------------------------|----------------------|
|-----------------------------------|----------------------|
|-----------------------------------|----------------------|
|
| Gtr II
|        PM---|               PM-|
|  
|-----------------------------------|----------------------|
|-----------------------------------|----------------------|
|-----------------------------------|----------------------|
|-----------------------------------|----------------------|
|--5--5-------------5--5------------|-7-7-5-7s10-----------|
|--3--3--3------3---3--3------3---3-|-5-5-3-5S=8-----------|


  G5                                  A5  G5A5
   Gtr I
|-----------------------------------|---------------------|
|-----------------------------------|---------------------|
|-12-12-12b14r(12)-12-12b14r(12)-12-|---------------------|
|-----------------------------------|---------------------|
|-----------------------------------|---------------------|
|-----------------------------------|---------------------|
|
|        PM---|               PM-|
|  Gtr II
|-----------------------------------|---------------------|
|-----------------------------------|---------------------|
|-----------------------------------|---------------------|
|-----------------------------------|---------------------|
|--5--5-------------5--5------------|-7-7-5-7-----(7)\----|
|--3--3--3------3---3--3------3---3-|-5-5-3-5-----(5)\----|


  G5                                  A5  G5A5    C5
   Gtr I
|-----------------------------------|----------------------|
|-----------------------------------|----------------------|
|-12-12-12b14r(12)-12-12b14r(12)-12-|----------------------|
|-----------------------------------|----------------------|
|-----------------------------------|----------------------|
|-----------------------------------|----------------------|
|
|        PM---|               PM-|
|  Gtr II
|-----------------------------------|----------------------|
|-----------------------------------|----------------------|
|-----------------------------------|----------------------|
|-----------------------------------|----------------------|
|--5--5-------------5--5------------|-7-7-5-7S10-(10)------|
|--3--3--3------3---3--3------3---3-|-5-5-3-5S=8--(8)------|


                          
  G5                                                       A5  G5A5
   Gtr I
|-----------------------------------|---------------------|--------------|--------*|
|-----------------------------------|---------------------|--------------|--------*|
|-12-12-12b14r(12)-12-12b14r(12)-12-|---------------------|--------------|--------*|
|-----------------------------------|---------------------|--------------|--------*|
|-----------------------------------|---------------------|--------------|--------*|
|-----------------------------------|---------------------|--------------|--------*|
|
|        PM---|               PM-|
|  Gtr II
|-----------------------------------|---------------------|--------------|--------*|
|-----------------------------------|---------------------|--------------|--------*|
|-----------------------------------|---------------------|--------------|--------*|
|-----------------------------------|---------------------|--------------|--------*|
|--5--5-------------5--5------------|-7-7-5-7------(7)\---|-7-7-5-----0--|---0----*|
|--3--3--3------3---3--3------3---3-|-5-5-3-5------(5)\---|-5-5-3--------|--------*|


Song sequence

Intro 
Pre Verse 
Chorus 1 
Chrous 2
Pre Verse 
Verse 
Chorus 3
Bridge 1
Pre Verse 
Verse 
Chorus 2
Bridge 2


 Lyrics 
Never gonna stop

(Use my body to keep you alive)

(baby, baby)
(baby, baby)
Yeah, my durango, number ninety-five
Take me to the home kick boots and ultra live
See heaven flash a horror show
Knock it nice and smooth step back and watch it flow, yeah

Never gonna stop me, never gonna stop (x4)

(baby, baby)
(baby, baby)
Yeah, the Devil ride a dinosaur, he paint the monster red 
so the blood don't stain the floor in outside savage show
Story of a shot came sickness watch it flow, yeah

Never gonna stop me, never gonna stop (x4)
Scream if you want it 'cause I want more (x2)

(baby, baby)
(baby, baby)
Yeah, my durango, number ninety-five
Take me to the home kick boots and ultra live
See heaven flash a horror show
Knock it nice and smooth step back and watch it flow, yeah

Never gonna stop me, never gonna stop (x4)
Scream if you want it 'cause I want more (x2)

Enjoy
Comments