Rob Zombie - Meet The Creeper Chords & Tabs

 

Meet The Creeper Chords & Tabs

Rob Zombie Chords & Tabs

Version: 1 Type: Tab 0 ratings
1 star 2 stars 3 stars 4 stars 5 stars
comments

Meet The Creeper Tab

   
Meet the Creeper- Rob Zombie  Tabbed by Bill G. (billg3@hotmail.com)

Tune from low to high strings: C, G, C, F, A, D

For this song, I refered to ROBZOMBIE.COM, some of this song wasnt easy
to figure out.

I would recommend holding the D chord with your pointer finger when playing this
first part (2nd fret), and playing the F chord (5th fret) with your pinkie. This
is the only way you can play fast enough to get it right.
[ Tab from: http://www.guitartabs.cc/tabs/r/rob_zombie/meet_the_creeper_tab.html ]
BPM=115

"The devil is in all of you!"
  repeat 7x
D|------------------------|
A|------------------------|
F|------------------------|
C|--2-2-2-5-2-2-2-4-2-2-3-|
G|--2-2-2-5-2-2-2-4-2-2-3-|
C|--2-2-2-5-2-2-2-4-2-2-3-|

This is played during the verse:
  repeat ?
D|--------|
A|--------|
F|--------|
C|--2-2-2-|
G|--2-2-2-|
C|--2-2-2-|
p.m.-----

Chorus:
 repeat 3x
D|-------------|
A|-------------|
F|-------------|
C|--0-0-0-0-6~-|
G|--0-0-0-0-6~-|
C|--0-0-0-0-6~-|
Comments