Rob Zombie - House Of 1000 Corpses Chords & Tabs

 

House Of 1000 Corpses Chords & Tabs

Rob Zombie Chords & Tabs

Version: 1 Type: Bass Tab 0 ratings
1 star 2 stars 3 stars 4 stars 5 stars
comments

House Of 1000 Corpses Bass Tab

Artist:Rob Zombie
Song:House of 1,000 corpses
Tuning:DGCF
    intro 0:45
|-------------------------------------------------------------------|
|-------------------------------------------------------------------|
|-------------------------------------------------------------------|
|----5-5-5-5---5-5-5-5---5-5-5-5---5-5-5-5---5-5-5-5----------------|    main part of the song

   "this is the house"
|-------------------------------------------------------------------|
|-------------------------------------------------------------------|
|-------------------------------------------------------------------|
|----5-55-8~7-8-7-8-8-7---------------------------------------------|4x

|-------------------------------------------------------------------|
|-------------------------------------------------------------------|
|-------------------------------------------------------------------|
|----5-5-5-5---5-5-5-5---5-5-5-5---5-5-5-5---5-5-5-5----------------|

|-------------------------------------------------------------------|
|-------------------------------------------------------------------|
|-------------------------------------------------------------------|
|----5-55-8~7-8-7-8-8-7---------------------------------------------|
[ Tab from: http://www.guitartabs.cc/tabs/r/rob_zombie/house_of_1000_corpses_btab.html ]
|-------------------------------------------------------------------|
|-------------------------------------------------------------------|
|-------------------------------------------------------------------|
|----5-5-5-5---5-5-5-5---5-5-5-5---5-5-5-5---5-5-5-5----------------|

|-------------------------------------------------------------------|
|-------------------------------------------------------------------|
|-------------------------------------------------------------------|
|----5-5-5-5---5-5-5-5---5-5-5-5---5-5-5-5---5-5-5-5----------------|

|-------------------------------------------------------------------|
|-------------------------------------------------------------------|
|-------------------------------------------------------------------|
|----5-55-8~7-8-7-8-8-7---------------------------------------------|

|-------------------------------------------------------------------|
|-------------------------------------------------------------------|
|-------------------------------------------------------------------|
|----5-5-5-5---5-5-5-5---5-5-5-5---5-5-5-5---5-5-5-5----------------|

rest until the piano part
|-------------------------------------------------------------------|
|-------------------------------------------------------------------|
|-------------------------------------------------------------------|
|---5~~5~~5~~-------------------------------------------------------|

thats about it so enjoy
Comments