Rob Zombie - Feel So Numb Chords & Tabs

 

Feel So Numb Chords & Tabs

Rob Zombie Chords & Tabs

Version: 3 Type: Tab 0 ratings
1 star 2 stars 3 stars 4 stars 5 stars
comments

Feel So Numb Tab

Feel So Numb Guitar Tabs.
Written and Performed by Rob Zombie
Tabs Written by Lead Guitar Riggs.

Also tune down a 3rd of regular tuning the notes almost sound dead. Drop C# tunning.

I Feel So Good I Feel So Numb Yeah!
E|---------------------------------------------------------------------|
B|-0-0-9-7-0-7-9---0-0-9-7-0-7-9---0-0-7-9-0-7-9-----0-0--7-0-8-9\-3~--|
G|---------------------------------------------------------------------|
D|---------------------------------------------------------------------|
A|---------------------------------------------------------------------|
E|---------------------------------------------------------------------|

[ Tab from: http://www.guitartabs.cc/tabs/r/rob_zombie/feel_so_numb_tab_ver_3.html ]
During Lyrics.
E|-------------------------------------------------------------------------|
B|-------------------------------------------------------------------------|
G|-------------------------------------------------------------------------|
D|---------------2--2---------------------2--2-----------------------2--2--|
A|---------------2--2---------------------2--2-----------------------2--2--|
E|---------------2--2---------------------2--2-----------------------2--2--|


In each part on the second Come on come on come on Riggs puts this in there.
E|-------------------------------------------------------------------|
B|--------------12--12--12-----------12--12--12----------12--12--12--|
G|-------------------------------------------------------------------|
D|-------------------------------------------------------------------|
A|-------------------------------------------------------------------|
E|-------------------------------------------------------------------|


After the part Rob sings sugar sweet brainiac on your neck ect. ect.
E|-------------------------------------------------------------|
B|-0-0-9-7-0-7-9---0-0-9-7-0-7-9---0-0-7-9-0-7-9-----7--6--5^--|or instead of bending
G|-------------------------------------------------------------|u can slide from 5 to 2!
D|-------------------------------------------------------------|
A|-------------------------------------------------------------|
E|-------------------------------------------------------------|

There ya go stoney's version of Rob Zombie's Feel So Numb!!
Enjoy any questions E-mail me at stoney_80_2000@yahoo.com
Comments