Rob Zombie - Feel So Numb Chords & Tabs

 

Feel So Numb Chords & Tabs

Rob Zombie Chords & Tabs

Version: 2 Type: Tab 0 ratings
1 star 2 stars 3 stars 4 stars 5 stars
comments

Feel So Numb Tab

   
Tab by Edin
Email xcrazywhiteboyxx@aol.com

This is an easy song anyone can play. I tabbed it myself except for the solo my
friend did it and he seas I can use it so tanks to David. Itís a very easy song
so enjoy.

Tuning Drop D, D, a, D, g, b, e


Part1:
E|-----------------|
B|-----------------|
G|-----------------|
D|-0-10-8-10-8-10--|
A|-0-10-8-10-8-10--|
E|-0-10-8-10-8-10--|

Part2:
E|---------|    |---------|
B|---------|    |---------|
G|---------|    |---------|
D|-6-6-6-8-| or |-0-6-6-8-|
A|-6-6-6-8-|    |-0-6-6-8-|
D|-6-6-6-8-|    |-0-6-6-8-|

Solo:
[ Tab from: http://www.guitartabs.cc/tabs/r/rob_zombie/feel_so_numb_tab_ver_2.html ]
This solo is repeated 

E|-8-8-8br9ó8-8-8br9-8-8-8br9----------|
B|-------------------------------------|
G|-----------------------------11-10-8-|
D|-------------------------------------|
A|-------------------------------------|
D|-------------------------------------|


E|-----------------------|
B|-----------------------|
G|-----------------------|
D|--------10-8----8-10---|<~~Repeat 3 more X
A|-----------------------|
E|-10-10-------10--------|

Part1 3x
Part2 1x
Part1 3x
Part2 1X
Part2 3X
Part1 3x
Part2 1x 
Part2 3x
Part1 3x
Part2 1x
Solo but u can play part 1 and 2 with it
Part2 3x
Part1 3x
Part2 1x
Part1 3x
Part2 1x 
Part1 3x
Part2 1x
Part1 3x
Part1 1x
Comments