Rob Zombie - Feel So Numb Chords & Tabs

 

Feel So Numb Chords & Tabs

Rob Zombie Chords & Tabs

Version: 1 Type: Tab 0 ratings
1 star 2 stars 3 stars 4 stars 5 stars
comments

Feel So Numb Tab

ROB ZOMBIE - NUMB

Tabbed by: KoRnAtEmYmOm (JJ)
Tuning: (CGCFAD) -or- (DbAbDbGbBbEb)

Chorus:
D|-----------------------\
A|------------------------\
F|-------------------------\
C|-0-0--12-10--0--10-12-----\
G|-0-0--12-10--0--10-12------\
C|-0-0--12-10--0--10-12-------\

Then:
D|------------------------\
A|-------------------------\
F|--------------------------\
C|-8-8-8-8-8/10-10-10-10-----\
G|-8-8-8-8-8/10-10-10-10------\
C|-8-8-8-8-8/10-10-10-10-------\
[ Tab from: http://www.guitartabs.cc/tabs/r/rob_zombie/feel_so_numb_tab.html ]
Verse:
D|-------\          
A|--------\        
F|---------\      
C|-0--0-----\    
G|-0--0------\  
C|-0--0-------\

Solo:
D|--------------------------\                 
A|-15-15-15-15-15-15-16-16---\        
F|----------------------------\     
C|-----------------------------\                   
G|------------------------------\                    
C|-------------------------------\ x4, then play              


D|-------------\          
A|--------------\        
F|-13-12-10-7----\      
C|----------------\    
G|-----------------\  
C|----------------- \
Comments