Rob Zombie - Dragula Chords & Tabs

 

Dragula Chords & Tabs

Rob Zombie Chords & Tabs

Version: 3 Type: Tab 0 ratings
1 star 2 stars 3 stars 4 stars 5 stars
comments

Dragula Tab

   
Dragula Guitar Tabs.
Written and Performed by Rob Zombie.
Tabs Written by Lead Guitar Riggs.


Again your guit box should be tuned a 3rd of a step down drop c# tunning.

Intro.
E|-14-14-14-14-14-14-14-14-13-13-13-13-17-17-17-17-16-16-16-16-|
B|-------------------------------------------------------------|
G|-------------------------------------------------------------|
D|-------------------------------------------------------------|
A|-------------------------------------------------------------|
E|-------------------------------------------------------------|


Then the Fun part. the cool marching part.
E|--------------------------------------------------------------------------------------------|
B|--------------------------------------------------------------------------------------------|
G|--------------------------------------------------------------------------------------------|
D|--------------------------------------------------------------------------------------------|
A|-5--5----5--5--5--5--5--5---------5--5---5--5--5--5--5--5----------5--5----5--5--5--5--5--5-|
E|-5--5----5--5--5--5--5--5---------5--5---5--5--5--5--5--5----------5--5----5--5--5--5--5--5-|

[ Tab from: http://www.guitartabs.cc/tabs/r/rob_zombie/dragula_tab_ver_3.html ]
E|----------------------------------------------------------------------------|
B|----------------------------------------------------------------------------|
G|----------------------------------------------------------------------------|
D|----------------------------------------------------------------------------|
A|-7--7--7--7--7--7--8--7--7--6--6--7------7--7--7--7--7--7--8--7--7--6--6--7-|
E|-7--7--7--7--7--7--8--7--7--6--6--7------7--7--7--7--7--7--8--7--7--6--6--7-|
                                                   also goes with burn like an animal!


Dig Through the ditches.
E|------------------------------------------------------------------|
B|------------------------------------------------------------------|
G|------------------------------------------------------------------|
D|------------------------------------------------------------------|
A|-5----3--3--3--3--0--5---3--3--3--3--0--5----3--3--3--3--3--0--3\-|
E|-5----3--3--3--3--0--5---3--3--3--3--0--5----3--3--3--3--3--0--3\-| X2

This is the cool marching beat after the chorus.
E|----------------------------------------------|
B|----------------------------------------------|
G|----------------------------------------------|
D|----------------------------------------------|
A|-555--555--555--5--5---555--555--6-6--5--5--5-|
E|-555--555--555--5--5---555--555--6-6--5--5--5-|
                                            also goes with do it baby do it baby!

Then the End.
E|--------------------------------------------------------|
B|--------------------------------------------------------|
G|--------------------------------------------------------|
D|-6~--------------6~--------------6~-----------------6~--|
A|-6~--------------6~--------------6~-----------------6~--|
E|-6~--------------6~--------------6~-----------------6~--|

There ya go another great Zombie song my fav and hopefuly yours. ENJOY!!
have fun and any questions please
e-mail me stoney_80_2000@yahoo.com
Comments