Rob Zombie - Dragula Chords & Tabs

 

Dragula Chords & Tabs

Rob Zombie Chords & Tabs

Version: 2 Type: Tab 0 ratings
1 star 2 stars 3 stars 4 stars 5 stars
comments

Dragula Tab

   
this is a revised version of my previously posted tabs.  i came up
with these tabs when i downloaded the music video.  this is the
closest i could get to the way Riggs plays it without messing it up.
so......enjoy

use wah distorstion and cloudy distortion throughout the entire song

intro(optional)
e\-------3---2
b\5---4-------
g\------------   x2
d\------------
a\------------
e\------------

guitar intro
e\-------------------------------------
b\-------------------------------------
g\-------------------------------------   x4
d\-------------------------------------  
a\14-14-14-14-14-15~~~14-14-14-14-14-14
e\-------------------------------------

verse interlude
e\----------------------------
b\----------------------------
g\----------------------------   x2
d\4-4-4-4-4-(5)5-5-4-4-4-4-4-4
a\----------------------------
e\----------------------------
[ Tab from: http://www.guitartabs.cc/tabs/r/rob_zombie/dragula_tab_ver_2.html ]
chorus
e\----------------------------------
b\----------------------------------
g\----------------------------------
d\20/--15---20/--15---20/--15------9<<d\1-1-1-1-1-1-1-1-1-1-1-1
a\1-1-1-1-1-1-1-1-1-1-1-1
e\1-1-1-1-1-1-1-1-1-1-1-1
p.m.......................

final chorus(optional)
e\-----
b\-----
g\--7--   x7
d\--7--
a\--7--
e\-----
palm mute

there ya go. hoped ya liked it.

got questions? i might have answers.
www.dragonman5002@aol.com
Comments