Roam - Crawling In The Dark Chords & Tabs

 

Crawling In The Dark Chords & Tabs

Roam Chords & Tabs

Version: 1 Type: Tab 0 ratings
1 star 2 stars 3 stars 4 stars 5 stars
comments

Crawling In The Dark Tab

Intro
E------------------------------------------------------------------
B------------------------------------------------------------------
G-------------6-----7-----6----------------------4-----------------
D----4--4--4-----4-----4-----4--7--4--6--2--2--2-------------------  X3
A------------------------------------------------------------------
D------------------------------------------------------------------
Slight PM...................................................

E------------------------------------------------------------------
B------------------------------------------------------------------
G-------------------------4----------------------------------------
D----4--4--4--7--4--6--4-----4--7--4--6--2-------------------------  X1
A------------------------------------------------------------------
D------------------------------------------------------------------
Slight PM...................................................

E------------------------------------------------------------------
B------------------------------------------------------------------
G-------------------7--7--6----------------------------------------
D---\2--4--4--2--4--7--7--6--7---2---------------------------------  X3
A---\2--4--4--2--4--5--5--4--7---2---------------------------------
D---\2--4--4--2--4-----------7---2---------------------------------


E------------------------------------------------------------------
B------------------------------------------------------------------
G---7--7-7-7-7-7-7-7-----------------------------------------------
D---7--7-7-7-7-7-7-7--7-7-7-7-7--2-2-2-----------------------------  X1
A---5--5-5-5-5-5-5-5--7-7-7-7-7--2-2-2-----------------------------
D---------------------7-7-7-7-7--2-2-2-----------------------------


Verse  (I will dedicate...)
E------------------------------------------------------------------
B------------------------------------------------------------------
G-------------6-----7-----6----------------------------------------
D----4--4--4-----4-----4-----4--7--4--6--2--2--2-------------------  X2
A------------------------------------------------------------------
D------------------------------------------------------------------
Slight PM...................................................

E------------------------------------------------------------------
B------------------------------------------------------------------
G-------------------------4----------------------------------------
D----4--4--4--7--4--6--4-----4--7--4--6--2-------------------------  X2
A------------------------------------------------------------------
D------------------------------------------------------------------
Slight PM...................................................


Chorus  (Show me what it's for...)
E------------------------------------------------------------------
B------------------------------------------------------------------
G-------------------7--7--6----------------------------------------  
D---\2--4--4--2--4--7--7--6--7---2---------------------------------  X2
A---\2--4--4--2--4--5--5--4--7---2---------------------------------
D---\2--4--4--2--4-----------7---2---------------------------------

E------------------------------------------------------------------
B------------------------------------------------------------------
G---7-7-7-7-7-7-7-7--9-9-9-9-9-9-9-9-------------------------------
D---7-7-7-7-7-7-7-7--9-9-9-9-9-9-9-9-------------------------------  X2
A---5-5-5-5-5-5-5-5--7-7-7-7-7-7-7-7-------------------------------
D------------------------------------------------------------------

Mid-section
E------------------------------------------------------------------
B------------------------------------------------------------------
G------------------------------------------------------------------
D---2-4---2-4--2-4--2-4---2-4--5-----------------------------------  X2
A---2-4---2-4--2-4--2-4---2-4--5-----------------------------------
D---2-4---2-4--2-4--2-4---2-4--5-----------------------------------
[ Tab from: http://www.guitartabs.cc/tabs/r/roam/crawling_in_the_dark_tab.html ]
E------------------------------------------------------------------
B------------------------------------------------------------------
G------------------------------------------------------------------
D---2-4-4444-2-4-4444-2-4-44-2-4-4444--2-4--5-22-5-----------------  X2
A---2-4-4444-2-4-4444-2-4-44-2-4-4444--2-4--5-22-5-----------------
D---2-4-4444-2-4-4444-2-4-44-2-4-4444--2-4--5-22-5-----------------
 PM     ....     ....     ..     ....         .. 

Solo: Random harmonics up and down the the low D string, along with some pick scraping

Bridge
E------------------------------------------------------------------
B------------------------------------------------------------------
G---7-7-7-7-7-7-7-7-7-7-7-7-7-7-7-7--------------------------------
D---7-7-7-7-7-7-7-7-7-7-7-7-7-7-7-7--6-6-6-6-6-6-4-----------------
A---5-5-5-5-5-5-5-5-5-5-5-5-5-5-5-5--6-6-6-6-6-6-4-----------------
D------------------------------------6-6-6-6-6-6-4-----------------


E------------------------------------------------------------------
B------------------------------------------------------------------
G---7-7-7-7-7-7-7-7-7-7-7-7-7-7-7-7--9-9-9-9-9-9-------------------
D---7-7-7-7-7-7-7-7-7-7-7-7-7-7-7-7--9-9-9-9-9-9-7-----------------
A---5-5-5-5-5-5-5-5-5-5-5-5-5-5-5-5--7-7-7-7-7-7-7-----------------
D------------------------------------------------7-----------------


E------------------------------------------------------------------
B------------------------------------------------------------------
G---7-7-7-7-7-7-7-7-7-7-7-7-7-7-7-7--------------------------------
D---7-7-7-7-7-7-7-7-7-7-7-7-7-7-7-7--6-6-6-6-6-6-4-----------------
A---5-5-5-5-5-5-5-5-5-5-5-5-5-5-5-5--6-6-6-6-6-6-4-----------------
D------------------------------------6-6-6-6-6-6-4-----------------


E------------------------------------------------------------------
B------------------------------------------------------------------
G---7-7-7-7-7-7-7-7-7-7-7-7-7-7-7-7--------------------------------
D---7-7-7-7-7-7-7-7-7-7-7-7-7-7-7-7--2-2-2-2-2-2-2-----------------
A---5-5-5-5-5-5-5-5-5-5-5-5-5-5-5-5--2-2-2-2-2-2-2-----------------
D------------------------------------2-2-2-2-2-2-2-----------------
PM                                   .............

E------------------------------------------------------------------
B------------------------------------------------------------------
G-------------6-----7-----6----------------------4-----------------
D----4--4--4-----4-----4-----4--7--4--6--2--2--2-------------------  X2
A------------------------------------------------------------------
D------------------------------------------------------------------
Slight PM...................................................

Outro
E------------------------------------------------------------------
B------------------------------------------------------------------
G---7-7-7-7-7-7-7-7--9-9-9-9-9-9-9-9-------------------------------
D---7-7-7-7-7-7-7-7--9-9-9-9-9-9-9-9-------------------------------  X2
A---5-5-5-5-5-5-5-5--7-7-7-7-7-7-7-7-------------------------------
D------------------------------------------------------------------

E------------------------------------------------------------------
B------------------------------------------------------------------
G-------------------7--7--6----------------------------------------  
D---\2--4--4--2--4--7--7--6--7---2---------------------------------  X2
A---\2--4--4--2--4--5--5--4--7---2---------------------------------
D---\2--4--4--2--4-----------7---2---------------------------------

E------------------------------------------------------------------
B------------------------------------------------------------------
G---7-7-7-7-7-7-7-7--9-9-9-9-9-9-9-9-------------------------------
D---7-7-7-7-7-7-7-7--9-9-9-9-9-9-9-9-------------------------------  X2
A---5-5-5-5-5-5-5-5--7-7-7-7-7-7-7-7-------------------------------
D------------------------------------------------------------------

E------------------------------------------------------------------
B------------------------------------------------------------------
G-------------------7--7--6----------------------------------------  
D---\2--4--4--2--4--7--7--6--7---2---------------------------------  X2
A---\2--4--4--2--4--5--5--4--7---2---------------------------------
D---\2--4--4--2--4-----------7---2---------------------------------

Comments