Roadtrip To Reality - She Never Showed Up Chords & Tabs

 

She Never Showed Up Chords & Tabs

Roadtrip To Reality Chords & Tabs

Version: 1 Type: Bass Tab 0 ratings
1 star 2 stars 3 stars 4 stars 5 stars
comments

She Never Showed Up Bass Tab

She Never Showed Up
by Roadtrip to Reality
Tab done by Adam Silva from RtR!!!

Intro x4
G:-----7-------7-------7-------7---
D:-0-0---0-7-7---7-5-5---5---------
A:-------------------------7-7---7-
E:---------------------------------

Verse x5
G:-----7-------7-------7-------7---
D:-0-0---0-7-7---7-5-5---5---------
A:-------------------------7-7---7-
E:---------------------------------

Fill between verse and pre-chorus x1
G:-----7-------7-------7-------7-------6-------6---
D:-0-0---0-7-7---7-5-5---5-5-5---5-7-7---7-7-7---7-
A:-------------------------------------------------
E:-------------------------------------------------
[ Tab from: http://www.guitartabs.cc/tabs/r/roadtrip_to_reality/she_never_showed_up_btab.html ]
Pre-chorus x4
G:-----7-------7-------7-------7---
D:-0-0---0-7-7---7-5-5---5---------
A:-------------------------7-7---7-
E:---------------------------------

Fill between pre-chorus and verse x1
G:-----7-------7-------7-------7-------6-------6---
D:-0-0---0-7-7---7-5-5---5-5-5---5-7-7---7-7-7---7-
A:-------------------------------------------------
E:-------------------------------------------------

Chorus x4
G:-----------0000000-2---------4-2222222-0-
D:-2222222-4-----------0000000-------------
A:-----------------------------------------
E:-----------------------------------------

Intro 

Verse 

Fill between verse and pre-chorus

Pre-chorus

Fill between pre-chorus and chorus

Chorus

Intro

Verse

Fill between verse and pre-chorus

Pre-chorus

Fill between pre-chorus and chorus

Chorus

Intro x4
Comments