Rivers Johnny - Secret Agent Man Solo Chords & Tabs

 

Secret Agent Man Solo Chords & Tabs

Rivers Johnny Chords & Tabs

Version: 1 Type: Tab 1 rating
1 star 2 stars 3 stars 4 stars 5 stars
comments

Secret Agent Man Solo Tab

Secret Agent Man Solo
Tabbed by Honkeytrash@hotmail.com

E|---------------------------------------------------------|
B|---------------------------------------------------------|
G|-------12-14B-14-12-12----12-------------12---14b-r-12---|
D|-14-14-----------------14----14p12h14-14---14---------14-|
A|---------------------------------------------------------|
E|---------------------------------------------------------|

E|---------------------------------------------------------|
B|-------------------------------12---15-12-12-15----------|
G|----------------12-14-14b-14-14--14-------------14p12h14-|
D|-12-14-12-14-14------------------------------------------|
A|---------------------------------------------------------|
E|---------------------------------------------------------|
[ Tab from: http://www.guitartabs.cc/tabs/r/rivers_johnny/secret_agent_man_solo_tab.html ]
E|------------12-12-12-15b-12--------------------------|
B|-----10----10--------------15b-r-12------------------|
G|--12----12-------------------------14b-r-12----------|
D|-------------------------------------------14-12-14--|
A|-----------------------------------------------------|
E|-----------------------------------------------------|

E|-------------------------------------------|
B|-------------------------------------------|
G|--12-14-12-14-14-12-14-12-----12--12--12---|
D|-------------------------14-14--14--14-----|
A|-------------------------------------------|
E|-------------------------------------------|

E|---------------------------------------------------------|
B|---------------------------------------------------------|
G|------12-14b-14-12-12----12---12----14b-r-12-------------|
D|-14-14----------------14----14---14----------14/0--------|
A|---------------------------------------------------------|
E|---------------------------------------------------------|

Comments