Rivers Johnny - Come Home America Chords & Tabs

 

Come Home America Chords & Tabs

Rivers Johnny Chords & Tabs

Version: 1 Type: Tab 0 ratings
1 star 2 stars 3 stars 4 stars 5 stars
comments

Come Home America Tab

   
#----------------------------------PLEASE NOTE--------------------------------#
#This file is the author's own work and represents their interpretation of the#
#song. You may only use this file for private study, scholarship, or research.#
#-----------------------------------------------------------------------------#

Date: Sat, 23 May 1998 23:18:24 +0200 (CEST)
From: Peter Eybert 
Subject: r/rivers_johnny/come_home_america.tab

Come Home America

written by J.Rivers/M.Georgiades
performed by Johnny Rivers
from Single "Rockin' Pneumonia Boogie Woogie Flu / Come Home America",
1972

Patterns:
[ Tab from: http://www.guitartabs.cc/tabs/r/rivers_johnny/come_home_america_tab.html ]
(1):
 G/D               D                 G/D               D
 v   v   v   v     v   v   v   v     v   v   v   v     v   v   v   v 
-7-------7-9-7---|-5---0-------5---|-3-------3-5-----|-2-------0h2-----|
-8-------------8-|-7-------7----7--|---3---3---------|-3---3-------3---|
-7---------------|-7-------7-----6-|-----4-----------|-2-----2-------2-|
-0-------0-------|-0-------0-------|-0-----0-0-------|-0-------0-------|
-----------------|-----------------|-----------------|-----------------|
-----------------|-----------------|-----------------|-----------------|

(2):
 G/D               Dj7               G/D               D
 v   v   v   v     v   v   v   v     v   v   v   v     v   v   v   v 
-7-------7-9-7---|-5---0-------5---|-3-------3-5-----|-2-------0h2-----|
-8---10---8----8-|-7-------7----7--|---3---3---------|-3---3-------3---|
-7---------------|-6-------6-----6-|-----4-----------|-2-----2-------2-|
-0---------0-----|-0-------0-------|-0-----0-0-------|-0-------0-------|
-----------------|-----------------|-----------------|-----------------|
-----------------|-----------------|-----------------|-----------------|

(1) 
(2)

VERSE:
G/D      Dj7    G/D      D                   
Comments